Song name
# A B C D E F G H I J K L M N O P Q R S T U V W X Y Z

Les Discrets - Les Regrets tab

Nearly 100% sure on this tab, the last chord sounds a little funky though, is you have 
any suggestions please contact at flingthesheep@hotmail.com.

E----------------------------------------------------------------|
B-------------------------------------------------5-4------------|
G-------3-4-6-8-6-/13-------------------3-4-6-3---4-4------------|
D-----6---------------13-11-9-8-4-----6---------4-2-1--13-11-9-8-|  2x
A----------------------------------------------------------------|
E--4-------------------------------4-----------------------------|


E------------------------------------------------------------|
B---------------------------------------------5-5------------|
G-------3-4-6-8-6-/13-------------------3-4-6-4-3------------|
D-----6---------------13-11-9-8-4-----6-------2-1--13-11-9-8-|
A------------------------------------------------------------|
E--4-------------------------------4-------------------------|


E---------------------------------------------------|
B---------------------------------------------5-4-4-|
G-------3-4-6-8-6-/13-------------------3-4-6-4-4-3-|
D-----6---------------13-11-9-8-4-----6-------2-1-1-| end of intro
A---------------------------------------------------|
E--4-------------------------------4----------------|
Tap to rate this tab
# A B C D E F G H I J K L M N O P Q R S T U V W X Y Z