Song name
# A B C D E F G H I J K L M N O P Q R S T U V W X Y Z

Les Marmottes Aplaties - Gagner tab

Help us improve GuitareTab! Take a short survey!
Song: Gagner
Band: Les marmottes applaties
CD: Décadents


Standard tunning,the rhythms isn't exacly right. 

x: lightly mute string with left hand.
~: let ring.
p: pull-off
/: slide
h:hammer on


intro/main riff:

e----------------------------------|
B----------------------------------|
G-------------2xx2-----------------|
D--4xx4x------0xx0-----------------|
A--2xx2x-2xx2x-----2--0-2-0-3p2p0--|
E--------0xx0x-----0---------------|


end of main riff:

e---------------------------|
B---------------------------|
G--------------2xx2~--------|
D--4xx4x-------0xx0~--------|
A--2xx2x-2xx2x-------2~-----|
E--------0xx0x-------0~-----|



pre Chorus:

je vais acheter....
e--------------------------|
B--------------------------|
G-----------2222222222-----|
D-222222222-2222222222-----|
A-222222222-0000000000-----|
E-000000000----------------|


Chorus:

Dépaneur, oui tu fais mon bonheur....
e---------------------------------|
B---------------------------------|
G---------------------------------|
D-444444-222222-----222222-22222--|
A-222222-222222-----000000-22222--|
E--------000000-3-2--------00000--|


End of chorus:

e--------------------------|
B----------------5---------|
G--4444-2-44-4/5-----------|
D--------------------------|
A--------------------------|
E--------------------------|


End

e----------------------|
B----------------------|
G----------------------|
D------------2~--------|
A--2h3-4-3~--0---------|
E----------------------|


Song order:

Intro/main-riff  x6
end of main riff  x1
pre chorus x2
main riff  x4 
end of main riff  x1
pre chorus x2
chorus  x2
end of chorus  x4
main riff x2
end of main riff x1
pre chorus  x2
chorus  x4
end of chorus  x4
end x1


Tabber par Jon...question-correction??? e-mail moi  
green_baypackers@hotmail.com
Related for Gagner tab