Song name
# A B C D E F G H I J K L M N O P Q R S T U V W X Y Z

Les Miserables - I Dreamed A Dream tab

I Dreamed a Dream
Les Miserables

Standard Tuning

Tabbed by Klokateer317

I have the piano/vocal sheet music for this and noticed that no one had transcribed it 
for guitar and put it on this site yet, so here it is in its 100% accurate

glory. Play around with hammer ons, pull offs, and sliding to figure out what sounds 
best to you.

E|-1-1-1-1-0-1-3-5---1-1-1-1-1-3-5---1-|
B|---------------------------------3---|
G|-------------------------------------|
D|-------------------------------------|
A|-------------------------------------|
E|-------------------------------------|

E|-5-5-5-5-3-5-6-8---5-5-5-5-5-6-8---1-|
B|---------------------------------3---|
G|-------------------------------------|
D|-------------------------------------|
A|-------------------------------------|
E|-------------------------------------|

E|-1-1-1-1-0-1-3-5---1-1-1-1-1-3-5---1-|
B|---------------------------------3---|
G|-------------------------------------|
D|-------------------------------------|
A|-------------------------------------|
E|-------------------------------------|

E|-5-5-5-5-3-5-6-8---5-5-5-5-5-6-8---1-|
B|---------------------------------3---|
G|-------------------------------------|
D|-------------------------------------|
A|-------------------------------------|
E|-------------------------------------|

E|-2-3-5-2----------2-3-5-2-------3-|
B|---------3-1--------------3-1-----|
G|-------------3----------------4---|
D|----------------------------------|
A|----------------------------------|
E|----------------------------------|

E|-0-1-3-0-------0-1-3-1-0-3-1-3-5-6-8-|
B|---------1---------------------------|
G|-----------3-1-----------------------|
D|-------------------------------------|
A|-------------------------------------|
E|-------------------------------------|

E|-1-1-1-1-0-1-3-5---1-1-1-1-1-3-5---1-|
B|---------------------------------3---|
G|-------------------------------------|
D|-------------------------------------|
A|-------------------------------------|
E|-------------------------------------|

E|-5-5-5-5-3-5-6-8---5-5-5-5-3-3-1-1-|
B|-----------------------------------|
G|-----------------------------------|
D|-----------------------------------|
A|-----------------------------------|
E|-----------------------------------|

E|-3-3-3-3-2-3-5-7---3-3-3-3-3-5-7-0-3-|
B|-------------------------------------|
G|-------------------------------------|
D|-------------------------------------|
A|-------------------------------------|
E|-------------------------------------|

E|-7-7-7-7-5-7-8-10---7-7-7-7-7-8-10-0-3-|
B|---------------------------------------|
G|---------------------------------------|
D|---------------------------------------|
A|---------------------------------------|
E|---------------------------------------|

E|-7-7-7-8-7-5-3-5---7-7-7-8-7-5-10-7-5-3-|
B|----------------------------------------|
G|----------------------------------------|
D|----------------------------------------|
A|----------------------------------------|
E|----------------------------------------|

E|-7-7-7-7-5-7-8-10---7-7-7-7-5-5-3-3(15)-|
B|----------------------------------------|
G|----------------------------------------|
D|----------------------------------------|
A|----------------------------------------|
E|----------------------------------------|
Tap to rate this tab
 
# A B C D E F G H I J K L M N O P Q R S T U V W X Y Z