Song name
# A B C D E F G H I J K L M N O P Q R S T U V W X Y Z

Les Miserables - Castle On A Cloud tab

Tabbed by Cheng
There is a castle..   I like to go...
e-5--7-8-7--5-5-4-5-|-5--7-8-7--5-3-1-0-|---0-1-0--5-7-8-5-|---0-1-0----------|
B-------------------|-------------------|-3----------------|-3--------3-1-0---|
G-------------------|-------------------|------------------|----------------2-|
D-------------------|-------------------|-0----------------|-0----------------|
A-0---------------0-|-0---------------3-|-------3----------|----------------0-|
E--------0-----1----|--------0----3-----|------------0---1-|-------0----0-----|

There is a lady...
e-1--0--------0-1-0-|-5--3-1-0--1-3-5-3-|3-6--5-3-1-3-5-1-|-0--1-0--101010--|
B------3-1--3------1|-------------------|----------------1|3----------------|
G-------------------|-------------------|-----------------|-----------------|
D-------------------|-------------------|-----------------|-----------------|
A-------------3---3-|-------------3---3-|---------1-------|-----------------|
E-1------1----------|-1------1----------|--6----------1--1|-0----0---0---0--|

There is a castle on a cloud,
I like to go there in my sleep,
Aren't any floors for me to sweep,
Not in my castle on a cloud.

There is a room that's full of toys,
There are a hundred boys and girls,
Nobody shouts or talks too loud,
Not in my castle on a cloud.

There is a lady all in white,
Holds me and sings a lullaby,
She's nice to see and she's soft to touch,
She says "Cosette, I love you very much."

I know a place where no one's lost,
I know a place where no one cries,
Crying at all is not allowed,
Not in my castle on a cloud.
Tap to rate this tab
# A B C D E F G H I J K L M N O P Q R S T U V W X Y Z