Song name
# A B C D E F G H I J K L M N O P Q R S T U V W X Y Z

Les Miserables - On My Own tab

On My Own
Les Miserables
Tab by Pierce Vallieres

e |------------------------------------------------------------------------|
B |-------------------------10--7------------------------------------------|
G |-----7--7----7--9--7--9---------9--7-------7--7----7--9--7--9--7--------|
D |--7-------------------------------------7-------------------------9--7--|
A |------------------------------------------------------------------------|
E |------------------------------------------------------------------------|

On my own, pretending he's beside me.  All alone, I walk with him 'til morning.

e |--------------------------------------------------------------------|
B |-------------------------7-----7-------8-7-----8-7-----8-7----------|
G |--------7----7--6--7--9-----7-------7------9-7-----9-7-----9-7------|
D |--7--9---------------------------------------------------------9-7--|
A |--------------------------------------------------------------------|
E |--------------------------------------------------------------------|

Without him, I feel his arms around me. And when I lose my way I close my eyes and he 
has found me.

e |------------------------------------------------------------------------|
B |-------------------------10--7------------------------------------------|
G |-----7--7----7--9--7--9---------9--7-------7--7----7--9--7--9--7--------|
D |--7-------------------------------------7-------------------------9--7--|
A |------------------------------------------------------------------------|
E |------------------------------------------------------------------------|

In the rain, the pavement shines like silver. All the lights. are misty in the river.

e |-----------------------------------------------------------------------|
B |----------------------------7-----7-------8-7-----8-7-----8-7----------|
G |-----------7----7--6--7--9-----7-------7------9-7-----9-7-----9-7------|
D |--7--9--9---------------------------------------------------------9-7--|
A |-----------------------------------------------------------------------|
E |-----------------------------------------------------------------------|

In the darkness, the tress are full of starlight. And all I see is him and me forever 
and forever.

e |--------------------------------------6--6-----------------------------|
B |--------------------------------------------6--6-----------------------|
G |-----7--7----7--8--7--9--10--10----7--------------7--7-----------------|
D |--7-------------------------------------------------------8--8--10--8--|
A |-----------------------------------------------------------------------|
E |-----------------------------------------------------------------------|

And I know, it's only in my mind. That I'm talking to myself, and not to him.

e |-----------------------------7----6--------------------------|
B |-----8--8----8--8--7--8--10----------10--8----7-----8--7-----|
G |-------------------------------------------------9--------9--|
D |--8----------------------------------------------------------|
A |-------------------------------------------------------------|
E |-------------------------------------------------------------|

And although, I know that he is blind. Still I say, there's a way for us.

e |------------------------------8------------------------------------------------------|
B |--------------------8------8-----10--8--------------------------8------8-------------|
G |------10--10----10-----10---------------10--------10--10----10-----10-----10--7------|
D |--10------------------------------------------10---------------------------------10--|
A |-------------------------------------------------------------------------------------|
E |-------------------------------------------------------------------------------------|

I love him, but when the night is over, he is gone, the river's just a river.

e |--------------------------------------------------------------------------------------------|
B |--------------------------8--10------10--------11-10-------11-10-------11-10----------------|
G |------7--10----10--9--10---------10--------10--------12-10-------12-10-------12-10----------|
D |--10--------------------------------------------------------------------------------12--10--|
A |--------------------------------------------------------------------------------------------|
E |--------------------------------------------------------------------------------------------|

Without him, the world around me changes. The trees are bare and everywhere the streets 
are full of strangers.

e |------------------------------8---------------------------------7-6-6--6--7--8--8--|
B |--------------------8------8-----10--8--------10--10--10----10---------------------|
G |------10--10----10-----10---------------10-----------------------------------------|
D |--10-------------------------------------------------------------------------------|
A |-----------------------------------------------------------------------------------|
E |-----------------------------------------------------------------------------------|

I love him, but every day I'm learning, all my life, I've only been pretending.

e |------------------------------------------------------------------------------------------|
B |--------------------------8--10------10--------11-10-------11-10-------11-10--------------|
G |------7--10----10--9--10---------10--------10--------12-10-------12-10-------12-10--(17)--|
D |--10--------------------------------------------------------------------------------------|
A |------------------------------------------------------------------------------------------|
E |------------------------------------------------------------------------------------------|

Without me, his world will go on turning. The world is full of happiness that I have 
never known.

e |----------------------------------------------------------------------|
B |----------------------------------------------------------------------|
G |------10--10--------10--10----12--12--10----10--12--10--12--14--(14)--|
D |--10------------10----------------------------------------------------|
A |----------------------------------------------------------------------|
E |----------------------------------------------------------------------|

I love him, I love him, I love him, but only on my own.
Tap to rate this tab
# A B C D E F G H I J K L M N O P Q R S T U V W X Y Z