Song name
# A B C D E F G H I J K L M N O P Q R S T U V W X Y Z

Les Paul - Darktown Strutters Ball tab

----------------------------------------------------------------------------
                             Darktown Strutters Ball - Les Paul
----------------------------------------------------------------------------
Tabbed by:JaaaayDeeee
E-mail:jdgilbert@ntlworld.com

Tuning:Standard 

e|-------------------------8-8------------------7-----8-8-7-5tr7---------8|
B|-----------------8-10-8------10-8--------7-10---10--------------8-10-8--|
G|-7/9-7-5tr7-7-9-------------------9-7-9---------------------------------|
D|------------------------------------------------------------------------|
A|------------------------------------------------------------------------|
E|------------------------------------------------------------------------|

e|-7-5hp7----8-5-8p7p6p5-8-8-7-5hp7-----------------8-8------------------|
B|--------8------------------------8---------8-10-8-----10-8--------7-10-|
G|---------------------------------------7-9-----------------9-7-9-------|
D|------------------------------------10---------------------------------|
A|-----------------------------------------------------------------------|
E|-----------------------------------------------------------------------|

e|-7-----8-8-7-----10-10-8-10-7tr8-7-7\5-8--7-8-8-7--5/20----------------|
B|---10--------10--------------------------------------------------------|
G|-----------------------------------------------------------------------|
D|-----------------------------------------------------------------------|
A|-----------------------------------------------------------------------|
E|-----------------------------------------------------------------------|

e|-11---11---11---11---11---11---11---11--12--12------|
B|-13---13---13---13---13---13---13---13--13--13------|
G|----0----0----0----0----0----0----0-----14--12------|
D|----------------------------------------------------|
A|----------------------------------------------------|
E|----------------------------------------------------|

i'm not sure about those last 2 chords if you can think of something better please leave a comment
Tap to rate this tab
 
# A B C D E F G H I J K L M N O P Q R S T U V W X Y Z