Song name
# A B C D E F G H I J K L M N O P Q R S T U V W X Y Z

Les Pistolets Roses - Liberte tab

Intro(2x)

-----------------------------------------------------------|
-----------------------------------------------------------|
-----------------------------------------------------------|
-12-14-14-12-14-14-12-14-14-12-14-14-14-15-15--------------|
-----------------------------------------------------------|
-----------------------------------------------------------|

-----------------------------------------------------------|
-----------------------------------------------------------|
-----------------------------------------------------------|
-12-14-14-12-14-14-12-14-14-12-14-14-14-10-10--------------|
-----------------------------------------------------------|
-----------------------------------------------------------|

Verse
-------------------------------------------------------------------------------|
-------------------------------------------------------------------------------|
-------------------------------------------------------------------------------|
-7----------5---------3-----------------10-10-10-10----9-9-9-9----5-5----------| 2x
-5-(14xpm)--3-(14xpm)-1-(14xpm)--8--8--8--8-----7-7-7-7----3-3-----------------|
-------------------------------------------------------------------------------|

Pre-chorus

--------------------------------------------------------------------|
--------------------------------------------------------------------|
--------------------------------------------------------------------|
---3-3-3-3-3-3-5-5-5-5-5-5--7-7-7-7-7-7--5-5-5-5-5-5-5-5------------|
---1-1-1-1-1-1-3-3-3-3-3-3--5-5-5-5-5-5--3-3-3-3-3-3-3-3------------|
--------------------------------------------------------------------|

-----------------------------------------------------------------------|
-----------------------------------------------------------------------|
-----------------------------------------------------------------------|
---3-3-3-3-3-3-5-5-5-5-5-5-3-3-3-3-3-3-3-3-5-5-5-5-5-5-5-5-------------|
---1-1-1-1-1-1-3-3-3-3-3-3-1-1-1-1-1-1-1-1-3-3-3-3-3-3-3-3-------------|
-----------------------------------------------------------------------|
                                        .  .  .  .  .  .  .  .  .   .  .  .  .  .  .  .

Chorus(2x)

-------------------------------------------------------|
-------------------------------------------------------|
-------------------------------------------------------|
--7-7-7-7-7-------------5-5-5-5-5--3-3-----------------|
--5-5-5-5-5-3-3-3-3-3-3-3-3-3-3--1-1-5-5-5-5-----------|
--------------1-1-1-1-1-------------------3-3-3-3------|

------------------------------------------------------|
------------------------------------------------------|
------------------------------------------------------|
--7-7-7-7-7-------------5-5-5-5-5--3-3-3-3-3-3--------|
--5-5-5-5-5-3-3-3-3-3-3-3-3-3-3--1-1-1-1-1-1----------|
--------------1-1-1-1-1-------------------------------|

Repeat Intro(1x)


Verse
Pré-chorus
Chorus


Interlude

---------------------------------------------------------|
---------------------------------------------------------|
---------------------------------------------------------|
---10----x-x-x9----x-x-x12----x-x-x10------10>-----------|
---8-----x-x-x7----x-x-x10----x-x-x8--------8>-----------|
---------------------------------------------------------|


Solo(4x palm mute, 2x normal)

-----------------------------------------------------------------------------------|
-----------------------------------------------------------------------------------|
---------0-2-0--------------0-2-0-----------------0--------------------------------|
--0-2-3--------3-2--0-2-3--------3-2-----0-2-3---3-2-0-------0-1-3-1-0-------------|
------------------------------------------3-------------------1-3-------------3----|
-----------------------------------------------------------------------------------|

At the end
--------------------------------------------------------------|
--------------------------------------------------------------|
--------------------------------------------------------------|3x
--12-12-12-14-14-14-15-15-15-17-17-17-19-19-20----------------|
--------------------------------------------------------------|
--------------------------------------------------------------|

At the third time
----------------------------|
----------------------------|
----------------------------|
----------------------------|
-20-19(16x)-17(9x)-/--------|
----------------------------|
----------------------------|

Chorus


Ending
------------------------------------------------------------|
------------------------------------------------------------|
------------------------------------------------------------|
-14-15-15-14-15-15-14-15-15-14-15-15-14-15-15---------------|
------------------------------------------------------------|
------------------------------------------------------------|

---------------------------------------|
---------------------------------------|
---------------------------------------|
-12-14-14-12-14-14--14-14-12-----------|
---------------------------------------|
---------------------------------------|

-----------------------------------------------------------|
-----------------------------------------------------------|
-----------------------------------------------------------|
14-15-15-14-15-15-14-15-15-14-15-15-14-15-15---------------|
-----------------------------------------------------------|
-----------------------------------------------------------|

--------------------------------------------------|
--------------------------------------------------|
--------------------------------------------------|
12-14-14-12-14-14-14-17-17-17-15-15-15------------|
--------------------------------------------------|
--------------------------------------------------|

--------------------|
--------------------|
--------------------|
-7------9-------7---|
-5------7-------5---|
--------------------|
Tap to rate this tab
 
# A B C D E F G H I J K L M N O P Q R S T U V W X Y Z