Song name
# A B C D E F G H I J K L M N O P Q R S T U V W X Y Z

Les Respectables - Sugar tab

-----------------------------------------------------------------------------
			     Sugar Ė Les Respectables
-----------------------------------------------------------------------------
Tabbed by: Rob Newhook
Email:rnewhook69@hotmail.com

Tuning:EADGBE
I wanted to learn this song and realized there is no TAB! So I listened to it and hereís 
I got.  Itís not perfect but itís better than nothing. I will update it when I have 
time.
Intro:Played 4 times
e|--------------------------------------------------------------------------|
B|------------------------------------------------X-X-11h12----12p11--------|
G|------------------------------------------------X-X-11-------11-----------|
D|---9------------11-------------------------11---X-X-11-------11-----------|
A|---9------------11-----------13------------11-----------------------------|
E|---7------------9------------9-------------9------------------------------|

Verse:Played 8 times
e|--------------------------------------------------------------------------|
B|------------------------------------------------X-X-11h12----12p11--------|
G|------------------------------------------------X-X-11-------11-----------|
D|---9------------11-------------------------11---X-X-11-------11-----------|
A|---9------------11-----------13------------11-----------------------------|
E|---7------------9------------9-------------9------------------------------|

  I used to fantasize about hip lilí chicks, with space dot eyes and lips like Mick.
I used to roll down before the dance hall queen with rock and roll patches on big jeans
But now I realize that I need a brand new lick

Chorus:
e|--------------------------------------------------------------------------|
B|--------------------------------------------------------------------------|
G|--------------------------------------------------------------------------|
D|----6---6---6---6--------4---4---4---4------------------------------------|
A|----6---6---6---6--------4---4---4---4------------------------------------|
E|----4---4---4---4--------2---2---2---2------------------------------------|

  So Iím givin it up, givin it up
for my sugar

The rest is pretty simple to pick up just by listening to the song a few times.  
after the second chorus there is a little guitar riff that goes like this,

e|--------------------------------------------------------------------------|
B|--------------------------------------------------------------------------|
G|--------------------------------------------------------------------------|
D|--------------------------------------------------------------------------|
A|--------7-----9-9-9-9---7-------------------------------------------------|
E|--9--9-----9----------------9---------------------------------------------|

Hope this helps, i know itís a little lacking but I tried.  Itís my first tab ever so 
comment and rate! 

| /  slide up
| \  slide down
| h  hammer-on
| p  pull-off
| ~  vibrato
| +  harmonic
| x  Mute note
=============================================================================
Tap to rate this tab
# A B C D E F G H I J K L M N O P Q R S T U V W X Y Z