Song name
# A B C D E F G H I J K L M N O P Q R S T U V W X Y Z

Les Sales Majestes - Les Vacances tab

Les Sales MajestÚs - Les vacances


Intro x4

E|---------------------------------|
B|---------------------------------|
G|---------------------------------|
D|-11--11----------11--11----------|
A|-9---9-----------9---9-----------|
E|---------------------------------|


Verse

E|---------------------|---------------------|---------------------|---------------------|
B|---------------------|---------------------|---------------------|---------------------|
G|---------------------|---------------------|---------------------|---------------------|
D|-11---11---11---11---|---------------------|-9----9----9----9----|---------------------| x2
A|-9----9----9----9----|-7----7----7----7----|-7----7----7----7----|-9----9----9----9----|
E|---------------------|-5----5----5----5----|---------------------|-7----7----7----7----|


Break

  Part 1

E|-------------|
B|-------------|
G|-------------|
D|-14----------| x2
A|-12----------|
E|-------------|

  Part 2

E|---------------------------------|---------------------------------|
B|---------------------------------|---------------------------------|
G|---------------------------------|---------------------------------|
D|-14--14--14--14--9---9---9---9---|---------------------------------|
A|-12--12--12--12--7---7---7---7---|-9---9---9---9---9---9---9---9---| x2
E|---------------------------------|-7---7---7---7---7---7---7---7---|


Verse


Break


Break 2

E|---------------------------------|-----------------------------|
B|---------------------------------|-----------------------------|
G|---------------------------------|-----------------------------|
D|-11--11--11--11--11--11--11--11--|-11----9----9---9----9---9---| x2
A|-9---9---9---9---9---9---9---9---|-9-----7----7---7----7---7---|
E|---------------------------------|-----------------------------|



Solo

  Background guitar

E|---------------------|---------------------|---------------------|---------------------|
B|---------------------|---------------------|---------------------|---------------------|
G|---------------------|---------------------|---------------------|---------------------|
D|-11---11---11---11---|---------------------|-9----9----9----9----|---------------------| x2
A|-9----9----9----9----|-7----7----7----7----|-7----7----7----7----|-9----9----9----9----|
E|---------------------|-5----5----5----5----|---------------------|-7----7----7----7----|



E|-------------|-------------|
B|-------------|-------------|
G|-------------|-------------|
D|-------9-----|-------------| x4
A|-7-----7-----|-9-----9-----|
E|-5-----------|-7-----7-----|


  Solo
  
E|------------------------|------------------------|
B|-----------14-------14--|-----------14-------14--|
G|-11---11--------11------|-14---14--------14------|
D|------------------------|------------------------|
A|------------------------|------------------------|
E|------------------------|------------------------|

E|------------------------|------------------------|
B|----------------14------|--------------17---16---|
G|-16---16---16-------14--|-11-------11------------|
D|------------------------|------------------------|
A|------------------------|------------------------|
E|------------------------|------------------------|


E|------------------------|------------------------|
B|-----------14-------14--|-----------14-------14--|
G|-11---11--------11------|-14---14--------14------|
D|------------------------|------------------------|
A|------------------------|------------------------|
E|------------------------|------------------------|

E|------------------------|------------------------|
B|----------------14------|--------------17---16---|
G|-16---16---16-------14--|-11-------11------------|
D|------------------------|------------------------|
A|------------------------|------------------------|
E|------------------------|------------------------|

E|---------------------------------|---------------------------------|
B|-17--17--17--17--16--16--16--16--|-17--17--17--17--19--19--19--19--|
G|---------------------------------|---------------------------------|
D|---------------------------------|---------------------------------|
A|---------------------------------|---------------------------------|
E|---------------------------------|---------------------------------|

E|---------------------------------|---------------------------------|
B|-17--17--17--17--16--16--16--16--|-17--17--16--16----------16--16--|
G|---------------------------------|-----------------16--16----------|
D|---------------------------------|---------------------------------|
A|---------------------------------|---------------------------------|
E|---------------------------------|---------------------------------|

E|---------------------|---------------------|
B|-17---17---16---16---|-17---17---19---19---|
G|---------------------|---------------------|
D|---------------------|---------------------|
A|---------------------|---------------------|
E|---------------------|---------------------|

E|-17b----r17----------------------|--------------------------|
B|-------------19--17------19--17--|-17b------19-17-----------|
G|---------------------------------|----------------16--------|
D|---------------------------------|--------------------------|
A|---------------------------------|--------------------------|
E|---------------------------------|--------------------------|


Verse


Break


Repeat break part 2


Break 2



Tab by hiphop :D
Tap to rate this tab
 
# A B C D E F G H I J K L M N O P Q R S T U V W X Y Z