Song name
# A B C D E F G H I J K L M N O P Q R S T U V W X Y Z

Les Sales Majestes - Sans Futur tab

Les Sales MajestÚs - Sans futur


Intro

E|---------------------|
B|---------------------|
G|---------------------|
D|-----------9----7----|
A|-----------7----5----|
E|---------------------|

E|------------------------------|---------------------|
B|------------------------------|---------------------|
G|------------------------------|---------------------|
D|-5----5---5---5---5---5---5---|-5----5----9----7----|
A|-3----3---3---3---3---3---3---|-3----3----7----5----| x3 
E|------------------------------|---------------------|

E|------------------------------|---------------------|
B|------------------------------|---------------------|
G|------------------------------|---------------------|
D|-5----5---5---5---5---5---5---|-5----5----5----5----|
A|-3----3---3---3---3---3---3---|-3----3----3----3----|
E|------------------------------|---------------------|


Verse

E|---------------------|-------------|-------------|-------------|
B|---------------------|-------------|-------------|-------------|
G|---------------------|-------------|-------------|-------------|
D|-5----5----5----5----|-------------|-------------|-------------|
A|-3----3----3----3----|-6-----6-----|-3-----3-----|-5-----5-----| x2
E|---------------------|-4-----4-----|-1-----1-----|-3-----3-----|


Break

E|--------|--------|--------|--------|
B|--------|--------|--------|--------|
G|--------|--------|--------|--------|
D|--------|--------|--------|--------|   x2
A|-6------|-6------|-5------|-5------|
E|-4------|-4------|-3------|-3------|

E|--------|--------|
B|--------|--------|
G|--------|--------|
D|--------|--------|
A|-5------|-5------|
E|-3------|-3------|


Chorus

E|--------|--------|--------|--------|--------|--------|--------|--------|
B|--------|--------|--------|--------|--------|--------|--------|--------|
G|--------|--------|--------|--------|--------|--------|--------|--------|
D|--------|-5------|--------|-5------|--------|-5------|--------|--------| x2
A|-6------|-3------|-6------|-3------|-6------|-3------|-5------|-5------|
E|-4------|--------|-4------|--------|-4------|--------|-3------|-3------|


Break 2


E|------------------------|---------------------|------------------------|---------------------|
B|------------------------|---------------------|------------------------|---------------------|
G|------------------------|---------------------|------------------------|---------------------|
D|-5----5----5---5----5---|-5----5----5----3----|------------------------|---------------------|
A|-3----3----3---3----3---|-3----3----3----1----|-6----6----6---6----6---|-6----6----6----5----|
E|------------------------|---------------------|-4----4----4---4----4---|-4----4----4----3----|


E|---------------------|-----------------|-----------------------------|-----------------------|
B|---------------------|-----------------|-----------------------------|-----------------------|
G|---------------------|-----------------|-----------------------------|-----------------------|
D|---------------------|-----------------|-----------------------------|-----------------------|
A|-3---3---3---3---3---|-3---3---5---3---|-5---5---5---5---5---5---5---|-5---------------------|
E|-1---1---1---1---1---|-1---1---3---1---|-3---3---3---3---3---3---3---|-3---------------------|


Verse


Break


Chorus


Break 2


Solo

  Background guitar: verse + break

  Solo

E|-----------------|-------------|-----------------|-------------|
B|-----------------|-------------|-----------------|-------------|
G|-----------------|-------------|-----------------|-------------|
D|-10---------10---|-13----12----|-10---------10---|-13----12----|
A|-----------------|-------------|-----------------|-------------|
E|-----------------|-------------|-----------------|-------------|


E|-----------------|-------------|-----------------|--------|
B|-----------------|-------------|-----------------|--------|
G|-----------------|-------------|-----------------|--------|
D|-10---------10---|-13----12----|-9----------9----|-12-----|
A|-----------------|-------------|-----------------|--------|
E|-----------------|-------------|-----------------|--------|


E|------------14---|-15--------14---15---|------------14---|-15--------14---15---|
B|-13----13--------|---------------------|-13----13--------|---------------------|
G|-----------------|---------------------|-----------------|---------------------|
D|-----------------|---------------------|-----------------|---------------------|
A|-----------------|---------------------|-----------------|---------------------|
E|-----------------|---------------------|-----------------|---------------------|


E|------------14---|-15--------14---15---|-15-----|-13--13--13--13--13--13--13--13--|
B|-13----13--------|---------------------|--------|---------------------------------|
G|-----------------|---------------------|--------|---------------------------------|
D|-----------------|---------------------|--------|---------------------------------|
A|-----------------|---------------------|--------|---------------------------------|
E|-----------------|---------------------|--------|---------------------------------|


E|-11-11-11-11-10-10-11-11-|-11-11-11-11-11-11-11-11-|
B|-------------------------|-------------------------|
G|-------------------------|-------------------------|
D|-------------------------|-------------------------|
A|-------------------------|-------------------------|
E|-------------------------|-------------------------|

E|-10-10-10-10-7--7--10-10-|-11-11-11-11-11-11-11-11-|
B|-------------------------|-------------------------|
G|-------------------------|-------------------------|
D|-------------------------|-------------------------|
A|-------------------------|-------------------------|
E|-------------------------|-------------------------|


E|-13-13-13-13-13-13-13-13-|-15-15-15-15-15-15-15-15-|
B|-------------------------|-------------------------|
G|-------------------------|-------------------------|
D|-------------------------|-------------------------|
A|-------------------------|-------------------------|
E|-------------------------|-------------------------|

E|-18-18-18-18-15-15-13-13-|-15-15-15-15-15-15-15-15-|
B|-------------------------|-------------------------|
G|-------------------------|-------------------------|
D|-------------------------|-------------------------|
A|-------------------------|-------------------------|
E|-------------------------|-------------------------|


E|-13--13--13--13--10--10--11--11--|-8-----------|
B|---------------------------------|-------------|
G|---------------------------------|-------------|
D|---------------------------------|-------------|
A|---------------------------------|-------------|
E|---------------------------------|-------------|


Chorus x2


End

E|--------|--------|-------------|
B|--------|--------|-------------|
G|--------|--------|-------------|
D|--------|-5------|-5-----------|
A|-6------|-3------|-3-----------|
E|-4------|--------|-------------|



Tab by hiphop :D
Tap to rate this tab
# A B C D E F G H I J K L M N O P Q R S T U V W X Y Z