Song name
# A B C D E F G H I J K L M N O P Q R S T U V W X Y Z

Les Sales Majestes - Tous Des Salopes tab

Les Sales MajestÚs - Tous des salopes


Verse

E|--------|--------|--------|--------|--------|--------|--------|--------|
B|--------|--------|--------|--------|--------|--------|--------|--------|
G|--------|-5------|--------|-8------|--------|-5------|--------|-8------|
D|-6------|-5------|-3------|-8------|-6------|-5------|-3------|-8------|
A|-6------|-3------|-3------|-6------|-6------|-3------|-3------|-6------|
E|-4------|--------|-1------|--------|-4------|--------|-1------|--------|


E|-------------|--------|--------|--------|
B|-------------|--------|--------|--------|
G|-------5-----|-10-----|-8------|-8------|
D|-6-----5-----|-10-----|-8------|-8------|
A|-6-----3-----|-8------|-6------|-6------|
E|-4-----------|--------|--------|--------|


Chorus

E|-------------|-------------|-------------|-------------|
B|-------------|-------------|-------------|-------------|
G|-------5-----|-10----8-----|-------5-----|-10----8-----|
D|-6-----5-----|-10----8-----|-6-----5-----|-10----8-----|
A|-6-----3-----|-8-----6-----|-6-----3-----|-8-----6-----|
E|-4-----------|-------------|-4-----------|-------------|

E|-------------|--------|--------|--------|
B|-------------|--------|--------|--------|
G|-------5-----|-10-----|-8------|-8------|
D|-6-----5-----|-10-----|-8------|-8------|
A|-6-----3-----|-8------|-6------|-6------|
E|-4-----------|--------|--------|--------|


Bridge

E|-------------|-------------|-------------|-------------|
B|-------------|-------------|-------------|-------------|
G|-------5-----|-10----8-----|-------5-----|-10----8-----|
D|-6-----5-----|-10----8-----|-6-----5-----|-10----8-----|
A|-6-----3-----|-8-----6-----|-6-----3-----|-8-----6-----|
E|-4-----------|-------------|-4-----------|-------------|

E|-------------|--------|--------|--------|
B|-------------|--------|--------|--------|
G|-------5-----|-10-----|-8------|-8------|
D|-6-----5-----|-10-----|-8------|-8------|
A|-6-----3-----|-8------|-6------|-6------|
E|-4-----------|--------|--------|--------|


Verse


Chorus


Bridge 2

E|--------|--------|--------|--------|--------|--------|--------|--------|
B|--------|--------|--------|--------|--------|--------|--------|--------|
G|--------|-5------|--------|-8------|--------|-5------|--------|-8------|
D|-6------|-5------|-3------|-8------|-6------|-5------|-3------|-8------|
A|-6------|-3------|-3------|-6------|-6------|-3------|-3------|-6------|
E|-4------|--------|-1------|--------|-4------|--------|-1------|--------|


E|-------------|--------|--------|--------|
B|-------------|--------|--------|--------|
G|-------5-----|-10-----|-8------|-8------|
D|-6-----5-----|-10-----|-8------|-8------|
A|-6-----3-----|-8------|-6------|-6------|
E|-4-----------|--------|--------|--------|


Chorus x2



Tab by hiphop :D
Tap to rate this tab
# A B C D E F G H I J K L M N O P Q R S T U V W X Y Z