Song name
# A B C D E F G H I J K L M N O P Q R S T U V W X Y Z

Les Sales Majestes - Dgage tab

Les Sales Majestés - Dégage

Intro

E|------------------------|------------------------------|
B|------------------------|------------------------------|
G|-7----7----5----5-------|------------------------------|
D|-7----7----5----5---7---|-7---7---7----7---7---7---7---| x4
A|-5----5----3----3---7---|-7---7---7----7---7---7---7---|
E|--------------------5---|-5---5---5----5---5---5---5---|


Verse (same as intro)


Break

E|------------------------|-----------------------|--------------------|--------------------|
B|------------------------|-----------------------|--------------------|--------------------|
G|------------------------|-----------------------|--------------------|--------------------|
D|-5------5---------------|-5------5--------------|-7--------7---------|-7--------7---------|
A|-3------3---------------|-3------3--------------|-5--------5---------|-5--------5---------|
E|------------------------|-----------------------|--------------------|--------------------|


Chorus (same as intro)


Verse


Break


Chorus


Solo
 
  Background guitar: play intro x 4, break and intro

  Solo

E|---------------------|---------------------|---------------------|---------------------|
B|---------------------|---------------------|---------------------|---------------------|
G|-14---15---14---15---|-14---15---14---15---|-14---15---14---15---|-14---15---17--------|
D|---------------------|---------------------|---------------------|---------------------|
A|---------------------|---------------------|---------------------|---------------------|
E|---------------------|---------------------|---------------------|---------------------|


E|---------------------|---------------------|---------------------|---------------------|
B|---------------------|---------------------|---------------------|---------------------|
G|-14---15---14---15---|-14---15---14---15---|-14---15---14---15---|-14------------------|
D|---------------------|---------------------|---------------------|---------------------|
A|---------------------|---------------------|---------------------|---------------------|
E|---------------------|---------------------|---------------------|---------------------|


E|----------------14---|-15--------14---15---|----------------15---|-14------------------|
B|-13---13-------------|---------------------|-13---13-------------|-----------13---12---|
G|---------------------|---------------------|---------------------|---------------------|
D|---------------------|---------------------|---------------------|---------------------|
A|---------------------|---------------------|---------------------|---------------------|
E|---------------------|---------------------|---------------------|---------------------|


E|----------------14---|-15--------14---15---|---------------------|---------------------|
B|-13---13-------------|---------------------|---------------------|---------------------|
G|---------------------|---------------------|-14---14--------12---|-14---14--------12---|
D|---------------------|---------------------|---------------------|---------------------|
A|---------------------|---------------------|---------------------|---------------------|
E|---------------------|---------------------|---------------------|---------------------|


E|---------------------|---------------------|---------------------|---------------------|
B|---------------------|---------------------|---------------------|---------------------|
G|-14------------------|---------------------|-16------------------|-17------------------|
D|---------------------|---------------------|---------------------|---------------------|
A|---------------------|---------------------|---------------------|---------------------|
E|---------------------|---------------------|---------------------|---------------------|


E|---------------------|---------------------|---------------------|---------------------|
B|---------------------|---------------------|---------------------|---------------------|
G|-14------------------|-12--------11--------|-14------------------|-16--------17--------|
D|---------------------|---------------------|---------------------|---------------------|
A|---------------------|---------------------|---------------------|---------------------|
E|---------------------|---------------------|---------------------|---------------------|


E|---------------------|---------------------|---------------------|---------------------|
B|---------------------|---------------------|---------------------|---------------------|
G|-14------------------|-12--------11--------|-14------------------|---------------------|
D|---------------------|---------------------|---------------------|---------------------|
A|---------------------|---------------------|---------------------|---------------------|
E|---------------------|---------------------|---------------------|---------------------|



Verse


Break


Chorus



Tab by hiphop :D
Tap to rate this tab
# A B C D E F G H I J K L M N O P Q R S T U V W X Y Z