Song name
# A B C D E F G H I J K L M N O P Q R S T U V W X Y Z

Les Sales Majestes - Chez Momo tab

Les Sales MajestÚs - Chez Momo


Intro x2

E|------------------------|------------------------|
B|------------------------|------------------------|
G|-7----7----7----10--12--|-12---12-------12--10---|
D|-7----7----7----10--12--|-12---12-------12--10---| x3
A|-5----5----5----8---10--|-10---10-------10--8----|
E|------------------------|------------------------|


E|---------------------|---------------------|
B|---------------------|---------------------|
G|-10---10---10---10---|-15---15--------15---|
D|-10---10---10---10---|-15---15--------15---|
A|-8----8----8----8----|-13---13--------13---|
E|---------------------|---------------------|


Verse

  Part 1

E|--------|--------|--------|--------|
B|--------|--------|--------|--------|
G|-7------|--------|-7------|--------|
D|-7------|-5------|-7------|-5------|
A|-5------|-5------|-5------|-5------|
E|--------|-3------|--------|-3------|


E|--------|--------|--------|--------|
B|--------|--------|--------|--------|
G|-7------|--------|--------|--------|
D|-7------|-5------|-3------|-8------|
A|-5------|-5------|-3------|-8------|
E|--------|-3------|-1------|-6------|

  Part 2

E|--------|--------|--------|--------|
B|--------|--------|--------|--------|
G|-7------|--------|-7------|-3------|
D|-7------|-5------|-7------|-3------|
A|-5------|-5------|-5------|-1------|
E|--------|-3------|--------|--------|


E|--------|--------|--------|--------|
B|--------|--------|--------|--------|
G|-5------|--------|-7------|-14-----|
D|-5------|-5------|-7------|-14-----|
A|-3------|-5------|-5------|-12-----|
E|--------|-3------|--------|--------|



Break

  Background Guitar

E|--------|--------|--------|--------|
B|--------|--------|--------|--------|
G|-7------|--------|-7------|-3------|
D|-7------|-5------|-7------|-3------|
A|-5------|-5------|-5------|-1------|
E|--------|-3------|--------|--------|


E|--------|--------|--------|--------|
B|--------|--------|--------|--------|
G|-5------|--------|-7------|-14-----|
D|-5------|-5------|-7------|-14-----|
A|-3------|-5------|-5------|-12-----|
E|--------|-3------|--------|--------|


  Solo

E|---------------------|---------------------|
B|---------------------|-12------------------|
G|---------------------|-----------12--------|
D|-12---12---12---12---|---------------------|
A|---------------------|---------------------|
E|---------------------|---------------------|


E|---------------------|---------------------|
B|-10---10---10---10---|-11------------------|
G|---------------------|-----------10--------|
D|---------------------|---------------------|
A|---------------------|---------------------|
E|---------------------|---------------------|

E|---------------------|---------------------|
B|-10---10---10---10---|-12------------------|
G|---------------------|-----------12--------|
D|---------------------|---------------------|
A|---------------------|---------------------|
E|---------------------|---------------------|


E|---------------------|---------------------|
B|-10---10---10---10---|---------------------|
G|---------------------|-12--------10--------|
D|---------------------|---------------------|
A|---------------------|---------------------|
E|---------------------|---------------------|



Intro


Verse


Break


Intro


Verse


Repeat Verse Part 2


End

  Background Guitar: play Intro


  Solo

E|---------------------------------|---------------------------------|
B|---------------------------------|---------------------------------|
G|---------10--12----------10--12--|---------10--12----------10--12--|
D|-10--12----------10--12----------|-10--12----------10--12----------|
A|---------------------------------|---------------------------------|
E|---------------------------------|---------------------------------|


E|---------------------------------|---------10------------------10--|
B|---------------------------------|-10--13--------------------------|
G|---------10--12----------10--12--|---------------------------------|
D|-10--12----------10--12----------|---------------------------------|
A|---------------------------------|---------------------------------|
E|---------------------------------|---------------------------------|


E|-13---10---13---10---|-13---10---13---10---|
B|---------------------|---------------------|
G|---------------------|---------------------|
D|---------------------|---------------------|
A|---------------------|---------------------|
E|---------------------|---------------------|

E|-10----------|-------------|
B|-------10----|-------------|
G|-------------|-12----------|
D|-------------|-------12----|
A|-------------|-------------|
E|-------------|-------------|


E|---------13--15----------13--15--|---------13--15----------13--15--|
B|-13--15----------13--15----------|-13--15----------13--15----------|
G|---------------------------------|---------------------------------|
D|---------------------------------|---------------------------------|
A|---------------------------------|---------------------------------|
E|---------------------------------|---------------------------------|

E|---------13--15----------13--15--|---------13--15------------------|
B|-13--15----------13--15----------|-13--15----------13--15--13--15--|
G|---------------------------------|---------------------------------|
D|---------------------------------|---------------------------------|
A|---------------------------------|---------------------------------|
E|---------------------------------|---------------------------------|

Tab by hiphop :D
Tap to rate this tab
# A B C D E F G H I J K L M N O P Q R S T U V W X Y Z