Song name
# A B C D E F G H I J K L M N O P Q R S T U V W X Y Z

Les Sales Majestes - Cest Pas Ma Faute tab


Verse x4

E|---------------------|---------------------|
B|---------------------|---------------------|
G|---------------------|---------------------|
D|-----------5---------|-----------7---------|
A|-5---------3---------|-7---------5---------|
E|-3-------------------|-5-------------------|


Pre-chorus

E|--------|--------|---------------------------------|---------------------------------|
B|--------|--------|---------------------------------|---------------------------------|
G|--------|--------|---------------------------------|---------------------------------|
D|-5------|--------|-5---5---5---5---5---5---5---5---|-7---7---7---7---7---7---7---7---|
A|-3------|-7------|-3---3---3---3---3---3---3---3---|-5---5---5---5---5---5---5---5---|
E|--------|-5------|---------------------------------|---------------------------------|

E|---------------------------------|
B|---------------------------------|
G|---------------------------------|
D|-7---7---7---7---7---7---7---7---|
A|-5---5---5---5---5---5---5---5---|
E|---------------------------------|


Chorus

E|---------------------------------|---------------------------------|
B|---------------------------------|---------------------------------|
G|---------------------------------|---------------------------------|
D|-----------------5---5---5---5---|-----------------7---7---7---7---|
A|-5---5---5---5---3---3---3---3---|-7---7---7---7---5---5---5---5---| x4
E|-3---3---3---3-------------------|-5---5---5---5-------------------|


Chorus End

E|--------|--------|---------------------------------|---------------------------------|
B|--------|--------|---------------------------------|---------------------------------|
G|--------|--------|---------------------------------|---------------------------------|
D|-5------|--------|-5---5---5---5---5---5---5---5---|-7---7---7---7---7---7---7---7---|
A|-3------|-7------|-3---3---3---3---3---3---3---3---|-5---5---5---5---5---5---5---5---|
E|--------|-5------|---------------------------------|---------------------------------|

E|---------------------------------|
B|---------------------------------|
G|---------------------------------|
D|-7---7---7---7---7---7---7---7---|
A|-5---5---5---5---5---5---5---5---|
E|---------------------------------|


Verse x4

Pre-chorus

Chorus

Chorus End


Verse x4

Pre-chorus

Chorus x2

Chorus End

End

E|---------------------|
B|---------------------|
G|---------------------|
D|---------------------|
A|-5-------------------|
E|-3-------------------|


Tab by hiphop :D
Tap to rate this tab
# A B C D E F G H I J K L M N O P Q R S T U V W X Y Z