Song name
# A B C D E F G H I J K L M N O P Q R S T U V W X Y Z

Les Sales Majestes - Les Pollueurs tab

Intro

E|---------------------------------|
B|---------------------------------|
G|---------------------------------|
D|---------------------------------|
A|-----6---6---6---6---6---6---6---|
E|-----4---7---4---7---4---7---4---|


E|------------------------|---------------------------------|
B|------------------------|---------------------------------|
G|------------------------|---------------------------------|
D|------------------------|---------------------------------|  x3
A|-6----6----6---6----6---|-6---6---6---6---6---6---6---6---|
E|-4----4----4---4----4---|-4---4---7---4---7---4---7---4---|


Intro 2

E|------------------------|---------------------------|------------------------------|-------------|
B|------------------------|---------------------------|------------------------------|-------------|
G|------------------------|---------------------------|------------------------------|-------------|
D|------------------------|---------------------------|------------------------------|-6-----4-----|
A|-6----6----6---6----6---|-6---6---6----6---6----6---|-6---6---6----6---6---6---6---|-4-----2-----| x2
E|-4----4----4---4----4---|-4---4---4----4---4----4---|-4---4---4----4---4---4---4---|-------------|


Verse x2

E|---------------------------------|---------------------------------|
B|---------------------------------|---------------------------------|
G|---------------------------------|---------------------------------|
D|---------------------------------|---------------------------------|
A|-6---6---6---6---6---6---6---6---|-6---6---6---6---6---6---6---6---|
E|-4---4---4---4---4---4---4---4---|-4---4---4---4---4---4---4---4---|

E|---------------------------------|---------------------------------|
B|---------------------------------|---------------------------------|
G|---------------------------------|---------------------------------|
D|---------------------------------|---------------------------------|
A|-6---6---6---6---6---6---6---6---|-6---6---6---6---6---6---6---6---|
E|-4---4---4---4---4---4---4---4---|-4---4---4---4---4---4---4---4---|

E|---------------------------------|---------------------------------|
B|---------------------------------|---------------------------------|
G|---------------------------------|---------------------------------|
D|---------------------------------|---------------------------------|
A|-2---2---2---2---2---2---2---2---|-0---0---0---0---0---0---0---0---|
E|-0---0---0---0---0---0---0---0---|-2---2---2---2---2---2---2---2---|

E|---------------------------------|---------------------------------|
B|---------------------------------|---------------------------------|
G|---------------------------------|---------------------------------|
D|---------------------------------|---------------------------------|
A|-6---6---6---6---6---6---6---6---|-6---6---6---6---6---6---6---6---|
E|-4---4---4---4---4---4---4---4---|-4---4---4---4---4---4---4---4---|


Verse End

E|--------|--------|-------------|---------------------|
B|--------|--------|-------------|---------------------|
G|--------|--------|-------------|---------------------|
D|-8------|-8------|-8-----8-----|-8----8----8----8----|
A|-6------|-6------|-6-----6-----|-6----6----6----6----|
E|--------|--------|-------------|---------------------|

Chorus x2

E|---------------------------------|---------------------------------|
B|---------------------------------|---------------------------------|
G|---------------------------------|---------------------------------|
D|---------------------------------|---------------------------------|
A|-2---2---2---2---2---2---2---2---|-6---6---6---6---6---6---6---6---| x3
E|-0---0---0---0---0---0---0---0---|-4---4---4---4---4---4---4---4---|


E|---------------------|---------------------|
B|---------------------|---------------------|
G|---------------------|---------------------|
D|-8----8----8----8----|-8----8----8----8----|
A|-6----6----6----6----|-6----6----6----6----|
E|---------------------|---------------------|


Intro

Verse x2

Verse end

Chorus x2


Intro x2

Intro 2

Verse x2

Verse end

Chorus x2


End

E|---------------------------------|---------------------------------|
B|---------------------------------|---------------------------------|
G|---------------------------------|---------------------------------|
D|---------------------------------|---------------------------------|
A|-2---2---2---2---2---2---2---2---|-6---6---6---6---6---6---6---6---| x3
E|-0---0---0---0---0---0---0---0---|-4---4---4---4---4---4---4---4---|


E|---------------------|
B|---------------------|
G|---------------------|
D|-8----8----8----8----|
A|-6----6----6----6----|
E|---------------------|


E|---------------------------------|---------------------------------|
B|---------------------------------|---------------------------------|
G|---------------------------------|---------------------------------|
D|---------------------------------|---------------------------------|
A|-6---6---6---6---6---6---6---6---|-6-------------------------------|
E|-4---4---7---4---7---4---4---4---|-4-------------------------------|



Tab by hiphop :D
Tap to rate this tab
 
# A B C D E F G H I J K L M N O P Q R S T U V W X Y Z