Song name
# A B C D E F G H I J K L M N O P Q R S T U V W X Y Z

Les Sales Majestes - Hml tab

Intro

E|---------------------------|---------------------------------|
B|---------------------------|---------------------------------|
G|---------------------------|---------------------------------|
D|--------------8----8-------|---------------------------------|  x4
A|-10---10--10--6----6---8---|-8---8---10--8---8---8---10--8---|
E|-8----8---8------------6---|-6---6---6---6---6---6---6---6---|  

Verse

E|-------------|-------------|
B|-------------|-------------|
G|-------------|-------------|
D|-------8-----|-------------|  x4
A|-10----6-----|-8-----8-----| 
E|-8-----------|-6-----6-----|


Chorus

E|---------------------|---------------------|---------------------|---------------------|
B|---------------------|---------------------|---------------------|---------------------|
G|---------------------|---------------------|---------------------|---------------------|
D|---------------------|-8----8----8----8----|---------------------|---------------------|
A|-6----6----6----6----|-6----6----6----6----|-8----8----8----8----|-10---10---10---10---| x2
E|-4----4----4----4----|---------------------|-6----6----6----6----|-8----8----8----8----|


E|---------------------|---------------------|
B|---------------------|---------------------|
G|---------------------|---------------------|
D|---------------------|---------------------|
A|-8----8----8----8----|-8-------------------|
E|-6----6----6----6----|-6-------------------|


Intro

Verse

Chorus

Intro

Solo

    Rhythm:

E|-------------|-------------|
B|-------------|-------------|
G|-------------|-------------|
D|-------8-----|-------------| x6
A|-10----6-----|-8-----8-----|
E|-8-----------|-6-----6-----|


E|---------------------|---------------------|---------------------|---------------------|
B|---------------------|---------------------|---------------------|---------------------|
G|---------------------|---------------------|---------------------|---------------------|
D|---------------------|-8----8----8----8----|---------------------|---------------------| x2
A|-6----6----6----6----|-6----6----6----6----|-8----8----8----8----|-10---10---10---10---|
E|-4----4----4----4----|---------------------|-6----6----6----6----|-8----8----8----8----| 


E|---------------------|---------------------|
B|---------------------|---------------------|
G|---------------------|---------------------|
D|---------------------|---------------------|
A|-8----8----8----8----|-8-------------------|
E|-6----6----6----6----|-6-------------------|


    Solo:
    
E|-----------------|-----------------|-----------------|--------|
B|-------8----9----|-8---------------|-11----9----8----|--------|
G|-----------------|-----------------|-----------------|--------|
D|-10--------------|-------10---10---|-----------------|-10-----|
A|-----------------|-----------------|-----------------|--------|
E|-----------------|-----------------|-----------------|--------|


E|-----------------|-----------------|-----------------|--------|
B|-------8----9----|-8---------------|-11----9----8----|--------|
G|-----------------|-----------------|-----------------|--------|
D|-10--------------|-------10---10---|-----------------|-10-----|
A|-----------------|-----------------|-----------------|--------|
E|-----------------|-----------------|-----------------|--------|


E|-------15---16---|-15--------------|-18----16---15---|--------|
B|-13--------------|-------13---13---|-----------------|-13-----|
G|-----------------|-----------------|-----------------|--------|
D|-----------------|-----------------|-----------------|--------|
A|-----------------|-----------------|-----------------|--------|
E|-----------------|-----------------|-----------------|--------|


E|---------------------|---------------------|---------------------|--------------------|
B|---------------------|---------------------|---------------------|--------------------|
G|-----------15--------|-----------15--------|-----------15--------|--------------------|
D|-12---13--------13---|-12---13--------13---|-12---13--------13---|-13-------13--12----|
A|---------------------|---------------------|---------------------|--------------------|
E|---------------------|---------------------|---------------------|--------------------|


E|---------------------|---------------------|---------------------|--------|-------------|
B|---------------------|---------------------|---------------------|--------|-------------|
G|-----------15--------|-----------15--------|-----------17---15---|--------|-------------|
D|-12---13--------13---|-12---13--------13---|-12---13-------------|-13-----|-10----8-----|
A|---------------------|---------------------|---------------------|--------|-------------|
E|---------------------|---------------------|---------------------|--------|-------------|


Verse

Chorus

End (same as intro)

Tab by hiphop :D
Tap to rate this tab
 
# A B C D E F G H I J K L M N O P Q R S T U V W X Y Z