Song name
# A B C D E F G H I J K L M N O P Q R S T U V W X Y Z

Les Savy Fav - Patty Lee tab

-------------------------------------------------------------------------------
			     Patty Lee - Les Savy Fav
-------------------------------------------------------------------------------
Tabbed by: Emmett C
Email: emmettcruddas@hotmail.co.uk

Tuning: Standard

e|-13-13-13-13-13-13-13-13-13-13---------13-13-13-13-13-13-13-13-13-13-------|
B|---------------------------------------------------------------------------|
G|---------------------------------------------------------------------------|
D|---------------------------------------------------------------------------|
A|---------------------------------------------------------------------------|
E|---------------------------------------------------------------------------|

e|-13-13-17-13-13-13-15-15-13-13---------13-13-17-13-13-13-15-15-13-13-------|
B|---------------------------------------------------------------------------|
G|---------------------------------------------------------------------------|
D|---------------------------------------------------------------------------|
A|---------------------------------------------------------------------------|
E|---------------------------------------------------------------------------|

e|-13-13-13-13-13-13-15-15-13-13-------------13-13-13-13-13-13-15-15-13-13-----------|
B|-------------------------------13----13----------------------------------13---13---|
G|-----------------------------------------------------------------------------------|
D|-----------------------------------------------------------------------------------|
A|-----------------------------------------------------------------------------------|
E|-----------------------------------------------------------------------------------|

e|-13-13-17-13-13-13-15-15-13-13---------13-13-15-15-13-13-------------------|
B|---------------------------------------------------------15-15-13-13-------|
G|---------------------------------------------------------------------------|
D|---------------------------------------------------------------------------|
A|---------------------------------------------------------------------------|
E|---------------------------------------------------------------------------|


Tap to rate this tab
 
# A B C D E F G H I J K L M N O P Q R S T U V W X Y Z