Song name
# A B C D E F G H I J K L M N O P Q R S T U V W X Y Z

Les Sheriff - Dollars tab

LES SHERIFF – Dollars -

Les Sheriff are a french punk band formed in Montpellier (south of France) in 1984. 
Their songs are very fast, short and heavy in a Ramones/Dickies style. They sing in french 
but lyrics are very easy to sing even for non-french!

http://artists.ultimate-guitar.com/httpsheriff_ultimate-guitar_com/
http://fr.wikipedia.org/wiki/Les_Sheriff
http://www.deezer.com/artist/5459


Intro + couplet 1 :

e-----------------------------------------------------|
b-----------------------------------------------------|
G------5-------------------8--------------------------|
D----5-------5------6----8----------------------------|
A--3-------5------6----6------------------------------|
E--------3------4-------------------------------------|


Couplet 1 :
C                       G
Toujours un truc à acheter
G#                      D#
Une barre de Mars ou une Chevrolet
C                       G
Toujours un truc qu’on désire
G#                      D#
Un crucifix contre les vampires

C                       G
Une poupée gonflable Marylin
G#                      D#
Avec en prime un lot de rustines
C                       G
Mais comment garder l’argent
G#                      D#
Qui file comme le vent ?

           G        G#
Je ne sais pas comment
           G    D#
Je ne sais pas vraiment


Refrain  X2 :
G#        Bb      C
Nanana !  Nananana !
C           G#                    D#
L’argent ça brûle le bout des doigts
G#        Bb      C
Nanana !  Nananana !


Thème Intro : C G G# D#


Couplet 2 :
C                       G
Toujours un truc à payer
G#                              D#
Une amende ou des carreaux cassés
C                        G
Mais comment garder l’argent
G#                 D#
Qui file comme le vent?

             G     G#
Je ne sais pas comment
             G       D#
Je ne sais pas vraiment


Refrain :
G#        Bb      C
Nanana !  Nananana !
C           G#                    D#
L’argent ça brûle le bout des doigts
G#         Bb    C
Nanana !  Nananana !
C                               G#
L’argent c’est fait pour se claquer
G#                 Bb
Difficile de le garder
              C       G#          D
L’argent ça brûle le bout des doigts


SOLO :
Jouer 2 fois
e----------------------------------------------------------|
b-------------------------------------------------4-4-4-4--|
G-5-5-5-5-5-5-3----3-3-3-3-3-3---3-5-5-5-5-5-5-5-5---------|
D----------------5-------------5---------------------------|
A----------------------------------------------------------|
E----------------------------------------------------------|


C                       G
Et pendant toute leur vie
G#                      D#
Y en a qui font des économies
C                       G
A quoi ça sert de crever
G#                      D#
Les poches pleines de billets?


Refrain :
G#        Bb    C
Nanana !  Nananana !
C           G#                D#
L’argent ça brûle le bout des doigts
G#              Bb      C
Nanana !  Nananana ! (X4)
Tap to rate this tab
# A B C D E F G H I J K L M N O P Q R S T U V W X Y Z