Song name
# A B C D E F G H I J K L M N O P Q R S T U V W X Y Z

Les Trois Accords - Hawanenne tab

    C                                           F                     G

E --12---12-15---12-12-12-12---12-15---12-12-12-13---13-13---13-13-13-15--|
B --13---13-13---13-13-13-13---13-13---13-13-13-13---13-13---13-13-13-15--|
G --12---12-12---12-12-12-12---12-12---12-12-12-14---14-14---14-14-14-16--|
D ------------------------------------------------------------------------|
A ------------------------------------------------------------------------|
E ------------------------------------------------------------------------|

E --15-17---17-15--|
B --15-15---15-15--|
G --16-16---16-16--|
D -----------------|
A -----------------|
E -----------------|
Tap to rate this tab
 
# A B C D E F G H I J K L M N O P Q R S T U V W X Y Z