Guitaretab - guitar tabs
Song name
# A B C D E F G H I J K L M N O P Q R S T U V W X Y Z

Les Vrp - Le Camps Dentrainement tab

LE CAMP D'ENTRAINEMENT
Les VRP - Remords et Tristes Pets


RIFF 1

|--6---8--6--6--|
|--7---9--7--6--|
|--8--10--8--7--|
|--8--10--8--8--|
|--6---8--6--8--|
|------------6--|


RIFF 2

|---8--6--|
|---9--6--|
|--10--7--|
|--10--8--|
|---8--8--|
|------6--|


REFRAIN
[ Tab from: http://www.guitaretab.com/l/les-vrp/62644.html ]
|--6---8--6--6--6---8--6--6--|
|--7---9--7--6--7---9--6--7--|
|--8--10--8--7--8--10--7--8--|
|--8--10--8--8--8--10--8--8--|
|--6---8--6--8--6---8--8--6--|
|------------6---------6-----|


ENCHAINEMENT DES PARTIES

	Riff 1 X 3
	Riff 1 X 2
	Riff 2 X 2
	Riff 1 X 1
	Refrain
	Riff 1 X 2
	Riff 2 X 2
	Riff 1 X 1
	Refrain
	Riff 1 X 2
	Riff 2 X 2
	Riff 1 X 1
	Refrain X 2 (pour la 2é fois, les 2 derniers accords se repètent 4 fois)
Related for Le Camps Dentrainement tab