Song name
# A B C D E F G H I J K L M N O P Q R S T U V W X Y Z

Les Vulgaires Machins - Tre Un Comme tab

Artiste : Les Vulgaires Machins
Album : Compter Les corps
Parution : 2007
Tablature: Marc-Olivier Lapointe

Je dois dire tout d'abord que c'est ma toute premire tablature alors il risque d'y
beaucoup d'erreurs mais je dsirais faire part de ma version pour du moins aider ceux qui
moi cherchaient comment jouer cette chanson. Si une autre personne peut mettre au point 
version amliorer de ma tablature et en utiliser des parcelles je la laisse. Laissez moi
mail a marco_moll@hotmail.com pour tous 
lettres d'insultes....

(Intro)

Guitare 1

|---------------------------------|
|---------------------------------|
|----4-4-4-4----------------------|
|----4-4-4-4----------------------| Autant de fois que ncessaire
|----4-4-4-4----------------------|
|---------------------------------|

Guitare 2

|-------------------------------------|
|------7-------7------7------7----7---|
|----7---7-7-7--7-7-7 -7-7-7---7-7----|
|---9-9---9-9-9--9-9-9--9-9-9---9-----|
|-------------------------------------|
|-------------------------------------|

Guitare 3(assez discrte il faut porter attention pour bien l'entendre)

|------------------------------|
|------------------------------|
|----5(6x)3(6x)1(6x)1(6x)------|
|----5----3----1----1----------| Autant de fois que ncessaire
|----3----1----0----0----------|
|------------------------------|


Couplet

(Seulement la basse pendant un certain moment)

Guitare 1

|-------------------------------------------------------|
|-------------------------------------------------------|
|----6(7x a peu pres)7(meme chose)----------------------|
|----6---------------7----------------------------------|
|----4---------------5----------------------------------|
|-------------------------------------------------------|

Guitare 2

|--------------------------------------------------|
|--------------------------------------------------|
|----8(6x a peu pres)7(pareil)8(pareil)12(pareil)--|
|----X---------------X--------X--------X-----------|
|----6---------------5--------6--------10----------|
|--------------------------------------------------|

Ca fait ca 2x dans le couplet 1

(Refrain)On s'en va nul part si......

Guitare 1

|-------------------------------------------------|
|-------------------------------------------------|
|-------------------------------------------------|
|----5(6x a preu pres)6(pareil)5(pareil)4(pareil)-| 2x
|----5----------------6--------5--------4---------|
|----3----------------4--------3--------1---------|

|-------------|
|-------------|
|-------------|
|----5--------| Autant de fois que ncessaire(pendant la squence de guit2)
|----5--------|
|----3--------|

Guitare 2

|-------------------------------------|
|------7-------8------9------7--------|
|----7---7-7-7--7-7-7 -7-7-7---7-7----|
|---9-9---9-9-9--9-9-9--9-9-9---9-----| 2x
|-------------------------------------|
|-------------------------------------|

Post-Couplet

Guitare 2

|--------------------------------------------------|
|--------------------------------------------------|
|----5(6x a peu pres)7(pareil)8(pareil)12(pareil)--| 2x
|----X---------------X--------X--------X-----------|
|----3---------------5--------6--------10----------|
|--------------------------------------------------|

Guitare 3(assez discrte il faut porter attention pour bien l'entendre)

|------------------------------|
|------------------------------|
|----5(6x)3(6x)1(6x)1(6x)------|
|----5----3----1----1----------|
|----3----1----0----0----------|
|------------------------------|

(Outro)ahahah ahahah ahahah ahahhhhhh

Guitare 1

|-------------------------------------------------|
|-------------------------------------------------|
|-------------------------------------------------|
|----5(6x a preu pres)6(pareil)5(pareil)4(pareil)-| 2x
|----5----------------6--------5--------4---------|
|----3----------------4--------3--------1---------|

Guitare 2(discrete mais audible en tendant l'oreille)

|----------------------------------------------|
|----777-77-666-66-777-77-888-88---------------|
|----777-77-666-66-777-77-888-88---------------|
|----------------------------------------------|
|----------------------------------------------|
|----------------------------------------------|

Ordre :

Intro
Couplet(2x)
Refrain
Post-Couplet
Couplet(2x)Un accord D est jou par la guitare 3
Refrain
Outro

Voila! Merci de laisser des commentaires et de noter ma tab!
Le Refrain sonne pas excessivement bien pour la Guitare1 je le sais sauf que c'est ce
j'ai trouv qui se rapproche le plus!
Tap to rate this tab
# A B C D E F G H I J K L M N O P Q R S T U V W X Y Z