Song name
# A B C D E F G H I J K L M N O P Q R S T U V W X Y Z

Les Vulgaires Machins - Comme Une Brique tab

intro 2x 
|-----------------------------------------------|
|-----------------------------------------------|
|-99-9-7777-11111111-9999-1111-1212-------------|
|-xx-x-xxxx-x-x-x-x--xxxx-x-x--x-x--------------|
|-77-7-5555-9-9-9-9--7777-9-9--1010-------------|
|-----------------------------------------------|

verse 2x (second time with palm mute)
|-----------------------------------------------|
|-----------------------------------------------|
|-----------------------------------------------|
|--10---10--7---3333--5555----------------------|
|--10---10--7---3333--5555----------------------|
|--8----7---5---1111--3333----------------------|
     
chorus:
background melody
|----5---5--------------------------------------|
|--5---5----5-8-5-8---3-5-3-5-------------------|
|-5-5-5-5--5-5-5-5---5-5-5-5--------------------|
|-----------------------------------------------|
|-----------------------------------------------|
|-----------------------------------------------|
guitar 2( at the same time)
|-----------------------------------------------|
|-----------------------------------------------|
|-----------------------------------------------|
|--------------------3----10-----101010---------|
|--------------------3----10-----101010---------|
|--------------------1----8------8-8-8----------|

intro

verse

chorus

solo  (bend chuck berry style)
|-----------------------------------------------|
|-------5---5---5---5---5---5---5----5----------|
|----7b9-7b9-7b9-7b9-7b9=7b9-7b9--7b9-----------|
|-----------------------------------------------|
|-----------------------------------------------|
|-----------------------------------------------|

guitar2
|-----------------------------------------------|
|-----------------------------------------------|
|---------------------------1212121212121212----|
|---------------------------x-x-x-x-x-x-x-x-----|
|---------------------------1010101010101010----|
|-----------------------------------------------|

|-----------------------------------------------|
|-----------------------------------------------|
|-1010101010101010999999999999--22-22-2-33-33-3-|
|-x-x-x-x-x-x-x-x-xxxxxxxxxxxx------------------|
|-8-8-8-8-8-8-8-8-777777777777------------------|
|-----------------------------------------------|

|-----------------------------------------------|
|-----------------------------------------------|
|-----------------------------------------------|
|-44-44-4-33-33-3-------------------------------|
|-----------------------------------------------|
|-----------------------------------------------|

verse (without palm mute)

chorus

intro
Tap to rate this tab
# A B C D E F G H I J K L M N O P Q R S T U V W X Y Z