Song name
# A B C D E F G H I J K L M N O P Q R S T U V W X Y Z

Les Vulgaires Machins - Les Gens De L Occident tab

Les Gens de l'Occident
des Vulgaires Machins
pour guit
tabbler par M-A Moisan
email: bestmarc2000@hotmail.com

e-|---------------------------------------------------------|
B-|---------------------------------------------------------|
G-|--4--4-4-4--4-4--4-4-4-4--4/-9--9--9---9--9---9--9--9--9-|
D-|--5--5-5-5--5-5--5-5-5-5--5/10-10-10--10-10--10-10-10-10-|
A-|--5--5-5-5--5-5--5-5-5-5--5/10-10-10--10-10--10-10-10-10-|
E-|--3--3-3-5--3-3--3-3-3-3--3/-8--8--8---8--8---8--8--8--8-|

Apr?s le premier couplet de Marie-?ve et Guillaume
avant qu'ils chantent: "ont est des gens de
l'occident, on est une gang de perdant"

(c'est pas le nombre de coup de pick exact mais
c? ?a le paterne.)

?a fait:

e-|------------------------------------------------------------|
B-|------------------------------------------------------------|
G-|--4--4-4-4--4-4--4-4-4-4--4/-9--9--9---9--9---9--9--9--9----|
D-|--5--5-5-5--5-5--5-5-5-5--5/10-10-10--10-10--10-10-10-10/12-|
A-|--5--5-5-5--5-5--5-5-5-5--5/10-10-10--10-10--10-10-10-10/12-|
E-|--3--3-3-5--3-3--3-3-3-3--3/-8--8--8---8--8---8--8--8--8/10-|

e-|-----------------------------------------------------------|
B-|-----------------------------------------------------------|
G-|-----------------------------------------------------------|
D-|-12-12-12-12-12/10-10-10-10-10-10/5-5-5-5-5-5-5------------|
A-|-12-12-12-12-12/10-10-10-10-10-10/5-5-5-5-5-5-5------------|
E-|-10-10-10-10-10/-8--8--8--8--8--8/3-3-3-3-3-3-3---etc.-----|

?coutez la toune pour le beat.

Si y'a des questions e-mailer moi...
Tap to rate this tab
# A B C D E F G H I J K L M N O P Q R S T U V W X Y Z