Guitaretab - guitar tabs
Song name
# A B C D E F G H I J K L M N O P Q R S T U V W X Y Z

Les Vulgaires Machins - Puit Sans Fond tab

Les vulgaires machins - Puit sans fond 

Intro:
|-------------------|
|-------------------|
|-------------------|
|-7-7--6-7-6--4-7-7-|
|-------------------|
|-------------------|

Pre verse:
|---|
|---|
|---|
|-5-|(let ring)
|-5-|
|-7-|

[ Tab from: http://www.guitaretab.com/l/les-vulgaires-machins/83124.html ]
I didn't find the verse but i'm pretty close to have it.

Chorus:

|-----------------------|
|-----------------------|
|--------7------------3-|
|-3------7------5-----3-|
|-3------9------5-----5-|
|-5-------------7-------|



Im not 100% sure of that, this is my first tabs.
Rate me.



Related for Puit Sans Fond tab
Advertisement will be closed in 10 seconds