Song name
# A B C D E F G H I J K L M N O P Q R S T U V W X Y Z

Les Wampas - Manu Chao tab

-------------------------------------------------------------------------------
			     Manu Chao - Les wampas
-------------------------------------------------------------------------------
Tabbed by:Peter Whittle (of Chemical Fire)
Email:King_pingu@hotmail.com

Tuning: Standard (EADGBe)

e|-----------------------------------------|
B|-----------------------------------------|
G|-----------------------------------------|
D|-14---14---14---14---14---14---14---14---|
A|-14---14---14---14---14---14---14---14---|
E|-12---12---12---12---12---12---12---12---|

e|-----------------------------------------|
B|-----------------------------------------|
G|-14---14---14---14---14---14---14---14---|
D|-14---14---14---12---14---14---14---14---|
A|-12---12---12---12---12---12---12---12---|
E|-----------------------------------------|

e|-----------------------------------------|
B|-----------------------------------------|
G|-16---16---16---16---16---16---16---16---|
D|-16---16---16---16---16---16---16---16---|
A|-14---14---14---14---14---14---14---14---|
E|-----------------------------------------|

and thats pretty much it, repeated over and over again.

it does go to this for a bit

e|-----------------------------------------|
B|-----------------------------------------|
G|----------------14-14--14------16-16--16-|  x4
D|-14-14--14------14-14--14------16-16--16-|
A|-14-14--14------12-12--12------14-14--14-|
E|-12-12--12-------------------------------|

same chords, differnt rhythm and what have you.

basically a very simple song.

i'll tab the solo later...

| /  slide up
| \  slide down
| h  hammer-on
| p  pull-off
| ~  vibrato
| +  harmonic
| x  Mute note
===============================================================================
Tap to rate this tab
 
# A B C D E F G H I J K L M N O P Q R S T U V W X Y Z