Les Wampas - Trop Precieux tab

Les Wampas - Trop Précieux
__________________________
[tabbed by Binuts] enjoy

Verse (clean classic guitar)
E/B/A/B

 [E:x799xx
  B:799xxx
  A:577xxx]

Chorus (distorted guitar)
E/B/A/B

 [E:77999x
  B:799877
  A:577655]

Solo 1:
   |     |     |     |     |     |     |     |     |
e|-------------------------------------------------|
B|-------------------------------------------------|
G|-------1-----2--1--------------------------------|
D|-2-----------------4-----------2-----------1-----|
A|----------------------0--0--------------2--------|
E|-------------------------------------------------|

Solo 2:
e|-----0H2H0-----0H2H0-----0H2H0-----0H2H0---|
B|---0---------0---------0---------0---------|
G|-------------------------------------------|
D|-2-----------------------------------------|
A|-----------2---------0---------2-----------|
E|-------------------------------------------|
Tap to rate this tab
 
# A B C D E F G H I J K L M N O P Q R S T U V W X Y Z