Song name
# A B C D E F G H I J K L M N O P Q R S T U V W X Y Z

Lesley Roy - Im Gone Im Going tab

Band / Artist : Lesley Roy
Song Title : I'm Gone I'm Going
Tabbed By : Shawn

I like this song a lot. It took me a while to figure it out. Ha ha. Well here.......

 Intro [Listen for the beat] :
e|--------------------------:|
B|21------------------------:|
G|--311131------------------:|   X2
D|--------33-3-3------------:|
A|----------4-4-------------:|
E|--------------------------:|

 "Watch Me" / Interlude [Listen for the beat again] :
e|-------------------------------------------------------------|
B|-------------------------------111122222222-----21-21--21-21-|
G|------------------------------------------(Break)-1--1---1--1|
D|-------------------------------------------------------------|
A|-------------------------------------------------------------|
E|44444444666666662222222222222222-----------------------------|
             [KEEP PLAYING UNDER THE LEAD]
 Chorus :
e|-----------------------------------------------------------------|
B|-----------------------------------------------------------------|
G|-----------------------------------------------------------------|
D|6666666688888888444444444444444466666666888888884444444444444444-|
A|6666666688888888444444444444444466666666888888884444444444444444-|
E|4444444466666666222222222222222244444444666666662222222222222222-|

 Extended Chorus [Different Beat] :
e|----------------------------------------------------------------|
B|----------------------------------------------------------------|
G|----------------------------------------------------------------|
D|6-6-6-6-8-8-8-8-4-4-4-4-4-4-4-4-6-6-6-6-8-8-8-8-4-4-4-4-4-4-4-4-|
A|6-6-6-6-8-8-8-8-4-4-4-4-4-4-4-4-6-6-6-6-8-8-8-8-4-4-4-4-4-4-4-4-|
E|4-4-4-4-6-6-6-6-2-2-2-2-2-2-2-2-4-4-4-4-6-6-6-6-2-2-2-2-2-2-2-2-|

Intro Again [Listen for the beat] :
e|--------------------------:|
B|21------------------------:|
G|--311131------------------:|   X2
D|--------33-3-3------------:|
A|----------4-4-------------:|
E|--------------------------:|

 "Watch Me" / Different Interlude [Listen for the beat again] :
e|-------------------------------------------------|
B|------------------------------------21-21--21-21-|
G|-------------------------------------1--1---1--1|
D|-------------------------------------------------|
A|-------------------------------------------------|
E|44444444666666662222222222222222------------------|
                      [KEEP PLAYING UNDER THE LEAD]
 Chorus :
e|-----------------------------------------------------------------|
B|-----------------------------------------------------------------|
G|-----------------------------------------------------------------|
D|6666666688888888444444444444444466666666888888884444444444444444-|
A|6666666688888888444444444444444466666666888888884444444444444444-|
E|4444444466666666222222222222222244444444666666662222222222222222-|

 Extended Chorus [Different Beat] :
e|----------------------------------------------------------------|
B|----------------------------------------------------------------|
G|----------------------------------------------------------------|
D|6-6-6-6-8-8-8-8-4-4-4-4-4-4-4-4-6-6-6-6-8-8-8-8-4-4-4-4-4-4-4-4-|
A|6-6-6-6-8-8-8-8-4-4-4-4-4-4-4-4-6-6-6-6-8-8-8-8-4-4-4-4-4-4-4-4-|
E|4-4-4-4-6-6-6-6-2-2-2-2-2-2-2-2-4-4-4-4-6-6-6-6-2-2-2-2-2-2-2-2-|

 Bridge :
e|------------------------------------------------------------------------|
B|------------------------------------------------------------------------|
G|------------------------------------------------------------------------|
D|------------------------------------------------------------------------|
A|------------------------------------------------------------------------|
E|444444446666666622222222222222224444444466666666222222222222222222222222-|

 Solo:
e|--------------------------|      S - Slide
B|1S21-------1S21-----------|
G|----31-1-13---31-1-133----|
D|------3-3-------3-3-------|
A|--------------------------|
E|--------------------------

 Chorus :
e|-----------------------------------------------------------------|
B|-----------------------------------------------------------------|
G|-----------------------------------------------------------------|
D|6666666688888888444444444444444466666666888888884444444444444444-|
A|6666666688888888444444444444444466666666888888884444444444444444-|
E|4444444466666666222222222222222244444444666666662222222222222222-|

 Extended Chorus [Different Beat] :
e|----------------------------------------------------------------|
B|----------------------------------------------------------------|
G|----------------------------------------------------------------|
D|6-6-6-6-8-8-8-8-4-4-4-4-4-4-4-4-6-6-6-6-8-8-8-8-4-4-4-4-4-4-4-4-|
A|6-6-6-6-8-8-8-8-4-4-4-4-4-4-4-4-6-6-6-6-8-8-8-8-4-4-4-4-4-4-4-4-|
E|4-4-4-4-6-6-6-6-2-2-2-2-2-2-2-2-4-4-4-4-6-6-6-6-2-2-2-2-2-2-2-2-|

 Intro [Listen for the beat] :
e|--------------------------:|
B|21------------------------:|
G|--311131------------------:|   X2
D|--------33-3-3------------:|
A|----------4-4-------------:|
E|--------------------------:|

Wooh ! lol I love that song and know you know it..I know it..were all happy..haha Cya 
Tap to rate this tab
# A B C D E F G H I J K L M N O P Q R S T U V W X Y Z