Song name
# A B C D E F G H I J K L M N O P Q R S T U V W X Y Z

Lesley Roy - When I Look At You tab

Highlighted       Show chord diagrams
Lesley Roy - When I Look At You


Standard tuning


Fm5  - 133xxx 
C#5  - x466xx
Bbm5 - 688xxx
G#5  - 466xxx
G#/G - 365xxx
Eb5  - x688xx



Intro: Fm5 - C#5 - Bbm5 - G#5-G#/G       

e|-------------------------------------------|
B|-------------------------------------------|
G|--10-10-10-12-12-12-13-13-6-6-6-6-6-6-6-6--|
D|-------------------------------------------|
A|---8--8--8-10-10-10-11-11-4-4-4-4-4-4-4-4--|
E|-------------------------------------------|
                                                    x2
e|-------------------------------------------|
B|-------------------------------------------|
G|--10-10-10-12-12-12-13-13-5-5-5-5-3/5\3/5--|
D|-------------------------------------------|      
A|---8--8--8-10-10-10-11-11-3-3-3-3-1/3\1/3--|
E|-------------------------------------------|
       

Verse:
Fm5                   C#5
Everybody knows, everybody knows,
                   Bbm5
You're the kind of guy, kind of guy
       G#5    -     G#/G
That a girl like me goes for
Fm5                     C#m5
Everywhere you go, everywhere you go
               Bbm5
People want to know why you're alone
        G#5       -      G#/G
Hanging out on the dance floor

Fm5              C#5             Bbm5
Ripped up jeans, tattoed sleves, so James Dean
G#5  -  G#/G         Fm5       C#5         Bbm5
But you got it cause you're so hot I could die


Chorus:
      Fm5       C#5
Cause when I looked at you
  Eb5                 Bbm5
I wanna get a room, I wanna get a room
Fm5      C#5         Eb5
Under all that cool I know you want it too
  Bbm5
I know you want it too
Fm5                 C#5                      G#5
What's a girl gotta do to get you out of her mind
             Eb5
And into the groove?
      Fm5       C#5          Eb5 - Bbm5
Cause when I looked at you I knew


Fm5 - C#5 - Bbm5 - G#5-G#/G

e|-------------------------------------------|
B|-------------------------------------------|
G|--10-10-10-12-12-12-13-13-6-6-6-6-6-6-6-6--|
D|-------------------------------------------|
A|---8--8--8-10-10-10-11-11-4-4-4-4-4-4-4-4--|
E|-------------------------------------------|

e|-------------------------------------------|
B|-------------------------------------------|
G|--10-10-10-12-12-12-13-13-5-5-5-5-3/5\3/5--|
D|-------------------------------------------|
A|---8--8--8-10-10-10-11-11-3-3-3-3-1/3\1/3--|
E|-------------------------------------------|


Verse:
          Fm5
I've been waiting all night,
        C#5
Waiting all night
              Bbm5
For the right time, right sign,
        G#5     -     G#/G
Just so I can finally make a move,
Fm5                   C#5
Cheesy lines from the wrong guys,
               Bbm5
Drinking cheap wine, Wasting time, 
         G#5     -      G#/G
Till the moment I could get to you

Fm5       C#5          Bbm5       G#5  -   G#/G
I walk over now, we're getting closer, I'm trembling
Fm5   C#5            Bbm5
I see heaven in your eyes. 


Chorus:
      Fm5       C#5
Cause when I looked at you
  Eb5                 Bbm5
I wanna get a room, I wanna get a room
Fm5      C#5         Eb5
Under all that cool I know you want it too
  Bbm5
I know you want it too
Fm5                 C#5                      G#5
What's a girl gotta do to get you out of her mind
             Eb5
And into the groove?
      Fm5       C#5          Eb5 - Bbm5
Cause when I looked at you I knew


Bridge: Fm5 - Fm5 - G#5 - Bbm5

e|--------------------------|
B|--------------------------|
G|--8s10-12p10-12b13r12-10--|   x4
D|--------------------------|
A|--------------------------|
E|--------------------------|


I knew, I knew

I knew, I knew


Fm5 - Fm5 - G#5 - Bbm5

Guitar 1
e|--------------------------|
B|--------------------------|
G|--8s10-12p10-12b13r12-10--|   x4
D|--------------------------|
A|--------------------------|
E|--------------------------|

Guitar 2
e|--------------------------|
B|--8s9--11p9--11b13r11-9---|
G|--------------------------|   x4
D|--------------------------|
A|--------------------------|
E|--------------------------|


I knew, I knew

I knew, I knew


Chorus/Outro:
  (break)              C#5
Cause when I looked at you
  Eb5                 Bbm5
I wanna get a room, I wanna get a room
Fm5      C#5         Eb5
Under all that cool I know you want it too
  Bbm5
I know you want it too
Fm5                 C#5                      G#5
What's a girl gotta do to get you out of her mind
             Eb5
And into the groove?
      Fm5       C#5          Eb5 - Bbm5
Cause when I looked at you I knew
      Fm5       C#5          Eb5 - Bbm5
Cause when I look at you I knew
      Fm5       C#5          Eb5 - Bbm5
Cause when I look at you I knew


e|-------------------------------------------|
B|-------------------------------------------|
G|--10-10-10-12-12-12-13-13-6-6-6-6-6-6-6-6--|
D|-------------------------------------------|
A|---8--8--8-10-10-10-11-11-4-4-4-4-4-4-4-4--|
E|-------------------------------------------|
                                                   x2
e|-------------------------------------------|
B|-------------------------------------------|
G|--10-10-10-12-12-12-13-13-5-5-5-5-3/5\3/5--|
D|-------------------------------------------|      
A|---8--8--8-10-10-10-11-11-3-3-3-3-1/3\1/3--|
E|-------------------------------------------|
       


Tap to rate this tab
 
# A B C D E F G H I J K L M N O P Q R S T U V W X Y Z