Song name
# A B C D E F G H I J K L M N O P Q R S T U V W X Y Z

Less Than A Second - Dad Its Not The Old Days tab

|-----------------------------------------------------------------|
|-----------------------------------------------------------------|
|-----------------------------------------------------------------|
|----------------7---5555-----------------------------------------|
|------7------5-----3333-------5----------------------------------|
|--5------------------------3-------------------------------------|


|--------------------------------------------------------------|
|--------------------------------------------------------------|
|--------------------------------------------------------------|
|-----------------------------------5--7---7---5---------------|
|-----77777777777777777777-----5-7---------------75------------|
|---55555555555555555555---------------------------------------|

|----------------------------------------------------------|
|----------------------------------------------------------|
|----------------------------------------------------------|
|----------------------------------------------------------|
|----77777777777777777777----------------------------------|
|---55555555555555555555-----------------------------------|
Tap to rate this tab
 
# A B C D E F G H I J K L M N O P Q R S T U V W X Y Z