Song name
# A B C D E F G H I J K L M N O P Q R S T U V W X Y Z

Less Than Jake - My Very Own Flag tab

----------------------------------------------------------------------------
			  my very own flag -Less than jake
----------------------------------------------------------------------------
Tabbed by:Justin Soos
Email:s0meKinDaHat3@aol.com

Tuning: Standard

This is my first tab so go easy on me!

Intro /Verse
e|----------------------------------------/--------------------------------|
B|----------------------------------------/--------------------------------|
G|-----7---6------------------------------/--------7-----------------------|
D|-----7---6---7-------9----7---5---------/--------7-----------------------|
A|-----5---4---7-------9----7---5---------/----hold 5----------------------|
E|-------------5-------7----5---3---------/--------------------------------|

Chorus/ Woo woo woo part
e|-----------------------------------------------------------------------|
B|-----------------------------------------------------------------------|
G|-7---------------------------------------------------------------------|
D|-7---7---9----5--------------------------------------------------------|
A|-5---7---9----5--------------------------------------------------------|
E|-----5---7----3--------------------------------------------------------|

i think thats all


| /  slide up
| \  slide down
| h  hammer-on
| p  pull-off
| ~  vibrato
| +  harmonic
| x  Mute note
Tap to rate this tab
# A B C D E F G H I J K L M N O P Q R S T U V W X Y Z