Song name
# A B C D E F G H I J K L M N O P Q R S T U V W X Y Z

Less Than Jake - Good Time For Change tab

Intro:
e|0~--------------|
B|0~--------------|
G|1~--------------|
D|2~--------------|
A|2~--------------|
E|0~--------------|

e|----------------|----------------|----------------|----------------|
B|--4-4-----2-2---|--4-4-----2-2---|--4-4-----2-2---|----------------|
G|4-4-4-4-2-2-2-2-|4-4-4-4-2-2-2-2-|4-4-4-4-2-2-2-2-|----------------|
D|4-4-4-4-2-2-2-2-|4-4-4-4-2-2-2-2-|4-4-4-4-2-2-2-2-|2---2-2--2--2---|
A|2-----2-0-----0-|2-----2-0-----0-|2-----2-0-----0-|2---2-2--2--2---|
E|----------------|----------------|----------------|0---0-0--0--0---|

e|----------------|----------------|----------------|----------------|
B|--4-4-----2-2---|--4-4-----2-2---|--4-4-----2-2---|----------------|
G|4-4-4-4-2-2-2-2-|4-4-4-4-2-2-2-2-|4-4-4-4-2-2-2-2-|----------------|
D|4-4-4-4-2-2-2-2-|4-4-4-4-2-2-2-2-|4-4-4-4-2-2-2-2-|2---2-2--2--2---|
A|2-----2-0-----0-|2-----2-0-----0-|2-----2-0-----0-|2---2-2--2--2---|
E|----------------|----------------|----------------|0---0-0--0--0---|

e|----------------|----------------|----------------|----------------|
B|----------------|----------------|----------------|----------------|
G|5-----5---------|7~--------------|5-----5---------|7~--------------|
D|5-----5-5----5--|7~--------------|5-----5-5----5--|7~--------------|
A|3-----3-5----5--|5~--------------|3-----3-5----5--|5~--------------|
E|--------3----3--|----------------|--------3----3--|----------------|

e|----------------|----------------|----------------|----------------|
B|----------------|----------------|----------------|----------------|
G|5-----5---------|7~--------------|5~----------5---|----------------|
D|5-----5-5----5--|7~--------------|5~--------5---5-|5~----------5---|
A|3-----3-5----5--|5~--------------|3~------3-------|5~--------5---5-|
E|--------3----3--|----------------|----------------|3~------3-------|


Verse:
e|----------------|----------------|----------------|----------------|
B|--4-4-----2-2---|--4-4-----2-2---|--4-4-----2-2---|----------------|
G|4-4-4-4-2-2-2-2-|4-4-4-4-2-2-2-2-|4-4-4-4-2-2-2-2-|----------------|
D|4-4-4-4-2-2-2-2-|4-4-4-4-2-2-2-2-|4-4-4-4-2-2-2-2-|2---2-2--2--2---|
A|2-----2-0-----0-|2-----2-0-----0-|2-----2-0-----0-|2---2-2--2--2---|
E|----------------|----------------|----------------|0---0-0--0--0---|

e|----------------|----------------|----------------|----------------|
B|--4-4-----2-2---|--4-4-----2-2---|--4-4-----2-2---|----------------|
G|4-4-4-4-2-2-2-2-|4-4-4-4-2-2-2-2-|4-4-4-4-2-2-2-2-|----------------|
D|4-4-4-4-2-2-2-2-|4-4-4-4-2-2-2-2-|4-4-4-4-2-2-2-2-|2---2-2--2--2---|
A|2-----2-0-----0-|2-----2-0-----0-|2-----2-0-----0-|2---2-2--2--2---|
E|----------------|----------------|----------------|0---0-0--0--0---|

Chorus:
e|----------------|----------------|----------------|----------------|
B|----------------|----------------|--4-4-----2-2---|--4-4-----2-2---|
G|----------------|----------------|4-4-4-4-2-2-2-2-|4-4-4-4-2-2-2-2-|
D|5-----3-5---5---|7-----7-----7---|4-4-4-4-2-2-2-2-|4-4-4-4-2-2-2-2-|
A|5-----3-5---5---|7-----7-----7---|2-----2-0-----0-|2-----2-0-----0-|
E|3-----1-3---3---|5-----5-----5---|----------------|----------------|

e|----------------|----------------|----------------|----------------|
B|----------------|----------------|--4-4-----2-2---|--4-4-----2-2---|
G|----------------|----------------|4-4-4-4-2-2-2-2-|4-4-4-4-2-2-2-2-|
D|5-----5-----5---|7-----7-----7---|4-4-4-4-2-2-2-2-|4-4-4-4-2-2-2-2-|
A|5-----5-----5---|7-----7-----7---|2-----2-0-----0-|2-----2-0-----0-|
E|3-----3-----3---|5-----5-----5---|----------------|----------------|

e|----------------|----------------|
B|--4-4-----2-2---|----------------|
G|4-4-4-4-2-2-2-2-|----------------|
D|4-4-4-4-2-2-2-2-|2---2-2--2--2---|
A|2-----2-0-----0-|2---2-2--2--2---|
E|----------------|0---0-0--0--0---|

Verse:
e|----------------|----------------|----------------|----------------|
B|--4-4-----2-2---|--4-4-----2-2---|--4-4-----2-2---|----------------|
G|4-4-4-4-2-2-2-2-|4-4-4-4-2-2-2-2-|4-4-4-4-2-2-2-2-|----------------|
D|4-4-4-4-2-2-2-2-|4-4-4-4-2-2-2-2-|4-4-4-4-2-2-2-2-|2---2-2--2--2---|
A|2-----2-0-----0-|2-----2-0-----0-|2-----2-0-----0-|2---2-2--2--2---|
E|----------------|----------------|----------------|0---0-0--0--0---|

e|----------------|----------------|----------------|----------------|
B|--4-4-----2-2---|--4-4-----2-2---|--4-4-----2-2---|----------------|
G|4-4-4-4-2-2-2-2-|4-4-4-4-2-2-2-2-|4-4-4-4-2-2-2-2-|----------------|
D|4-4-4-4-2-2-2-2-|4-4-4-4-2-2-2-2-|4-4-4-4-2-2-2-2-|2---2-2--2--2---|
A|2-----2-0-----0-|2-----2-0-----0-|2-----2-0-----0-|2---2-2--2--2---|
E|----------------|----------------|----------------|0---0-0--0--0---|

Chorus:
e|----------------|----------------|----------------|----------------|
B|----------------|----------------|--4-4-----2-2---|--4-4-----2-2---|
G|----------------|----------------|4-4-4-4-2-2-2-2-|4-4-4-4-2-2-2-2-|
D|5-----5---3-5---|7-----7-----7---|4-4-4-4-2-2-2-2-|4-4-4-4-2-2-2-2-|
A|5-----5---3-5---|7-----7-----7---|2-----2-0-----0-|2-----2-0-----0-|
E|3-----3---1-3---|5-----5-----5---|----------------|----------------|

e|----------------|----------------|----------------|----------------|
B|----------------|----------------|--4-4-----2-2---|--4-4-----2-2---|
G|----------------|----------------|4-4-4-4-2-2-2-2-|4-4-4-4-2-2-2-2-|
D|5-----5---5-5---|7-----7-----7---|4-4-4-4-2-2-2-2-|4-4-4-4-2-2-2-2-|
A|5-----5---5-5---|7-----7-----7---|2-----2-0-----0-|2-----2-0-----0-|
E|3-----3---3-3---|5-----5-----5---|----------------|----------------|

e|----------------|----------------|
B|--4-4-----2-2---|----------------|
G|4-4-4-4-2-2-2-2-|----------------|
D|4-4-4-4-2-2-2-2-|2~--------------|
A|2-----2-0-----0-|2~--------------|
E|----------------|0~--------------|

Bridge:
e|----------------|----------------|----------------|----------------|
B|----------------|----------------|----------------|----------------|
G|5-----5---------|7~--------------|5-----5---------|7~--------------|
D|5-----5-5----5--|7~--------------|5-----5-5----5--|7~--------------|
A|3-----3-5----5--|5~--------------|3-----3-5----5--|5~--------------|
E|--------3----3--|----------------|--------3----3--|----------------|

e|----------------|----------------|----------------|----------------|
B|----------------|----------------|----------------|----------------|
G|5-----5---------|7~--------------|5~----------5---|----------------|
D|5-----5-5----5--|7~--------------|5~--------5---5-|5~----------5---|
A|3-----3-5----5--|5~--------------|3~------3-------|5~--------5---5-|
E|--------3----3--|----------------|----------------|3~------3-------|

e|----------------|----------------|----------------|----------------|
B|--4-4-----2-2---|--4-4-----2-2---|--4-4-----2-2---|----------------|
G|4-4-4-4-2-2-2-2-|4-4-4-4-2-2-2-2-|4-4-4-4-2-2-2-2-|----------------|
D|4-4-4-4-2-2-2-2-|4-4-4-4-2-2-2-2-|4-4-4-4-2-2-2-2-|2---2-2--2--2---|
A|2-----2-0-----0-|2-----2-0-----0-|2-----2-0-----0-|2---2-2--2--2---|
E|----------------|----------------|----------------|0---0-0--0--0---|

e|----------------|----------------|----------------|----------------|
B|--4-4-----2-2---|--4-4-----2-2---|--4-4-----2-2---|----------------|
G|4-4-4-4-2-2-2-2-|4-4-4-4-2-2-2-2-|4-4-4-4-2-2-2-2-|----------------|
D|4-4-4-4-2-2-2-2-|4-4-4-4-2-2-2-2-|4-4-4-4-2-2-2-2-|2---2-2--2--2---|
A|2-----2-0-----0-|2-----2-0-----0-|2-----2-0-----0-|2---2-2--2--2---|
E|----------------|----------------|----------------|0---0-0--0--0---|

Chorus:
e|----------------|----------------|----------------|----------------|
B|----------------|----------------|--4-4-----2-2---|--4-4-----2-2---|
G|----------------|----------------|4-4-4-4-2-2-2-2-|4-4-4-4-2-2-2-2-|
D|5-----5---5-5---|7-----7---------|4-4-4-4-2-2-2-2-|4-4-4-4-2-2-2-2-|
A|5-----5---5-5---|7-----7---------|2-----2-0-----0-|2-----2-0-----0-|
E|3-----3---3-3---|5-----5---------|----------------|----------------|

e|----------------|----------------|
B|----------------|----------------|
G|----------------|----------------|
D|5-----5---5-5---|7-----7---------|
A|5-----5---5-5---|7-----7---------|
E|3-----3---3-3---|5-----5---------|

Outro:
 |-------x7--------|
e|----------------|----------------| 
B|----------------|----------------| 
G|------9---9-9-9-|----------------|
D|9--7--9---9-9-9-|9--7------2-----|
A|9--7--7---7-7-7-|9--7------2-----|
E|7--5------------|7--5------0-----|
Tap to rate this tab
# A B C D E F G H I J K L M N O P Q R S T U V W X Y Z