Song name
# A B C D E F G H I J K L M N O P Q R S T U V W X Y Z

Less Than Jake - City Of Gainesville tab

---------------
City of Gainesville
by: Less Than Jake
---------------
tabbed by: Mjones1992


I think this is pretty much right. I may have missed a few palm mutes, but I'm sure you'll manage.


Intro:
e|---------------------------------------------------------------|
B|------15-x-15------11-x-11------15-x-15------11-x-11-----------|
G|---15-15-x-15---10-10-x-10---15-15-x-15---10-10-x-10-----------|
D|------15-x-15------8-x-8--------15-x-15------8--x-8------------|
A|---------------------------------------------------------------|
E|---------------------------------------------------------------|

e|---------------------------------------------------------------|
B|------13-x-13-----9-x-9-----8-x-8------11-x-11-----------------|
G|---13-13-x-13---8-8-x-8---7-7-x-7---10-10-x-10-----------------|
D|------13-x-13-----6-x-6-----5-x-5------8--x-8------------------|
A|---------------------------------------------------------------|
E|---------------------------------------------------------------|

e|---------------------------------------------------------------|
B|------15-x-15------11-x-11------15-x-15------11-x-11-----------|
G|---15-15-x-15---10-10-x-10---15-15-x-15---10-10-x-10-----------|
D|------15-x-15------8-x-8--------15-x-15------8--x-8------------|
A|---------------------------------------------------------------|
E|---------------------------------------------------------------|

e|---------------------------------------------------------------|
B|------13-x-13-----9-x-9-----8-x-8------16-x-16-----------------|
G|---13-13-x-13---8-8-x-8---7-7-x-7---15-15-x-15-----------------|
D|------13-x-13-----6-x-6-----5-x-5------13-x-13-----------------|
A|---------------------------------------------------------------|
E|---------------------------------------------------------------|

Verse:

We have our master plan...
e|---------------------------------------------------------------|
B|------15-x-15------11-x-11------15-x-15------11-x-11-----------|
G|---15-15-x-15---10-10-x-10---15-15-x-15---10-10-x-10-----------|
D|------15-x-15------8-x-8--------15-x-15------8--x-8------------|
A|---------------------------------------------------------------|
E|---------------------------------------------------------------|

e|---------------------------------------------------------------|
B|------13-x-13-----9-x-9-----8-x-8------16-x-16-----------------|
G|---13-13-x-13---8-8-x-8---7-7-x-7---15-15-x-15-----------------|
D|------13-x-13-----6-x-6-----5-x-5------13-x-13-----------------|
A|---------------------------------------------------------------|
E|---------------------------------------------------------------|  X2


e|---------------------------------------------------------------|
B|------15-x-15------13-x-13-----8-x-8------16-x-16--------------|
G|---15-15-x-15---13-13-x-13---7-7-x-7---15-15-x-15--------------|
D|------15-x-15------13-x-13-----5-x-5------13-x-13--------------|
A|---------------------------------------------------------------|
E|---------------------------------------------------------------|X3

e|---------------------------------------------------------------|
B|------13-x-13------13-x-13-----8-x-8---------------------------|
G|---13-13-x-13---13-13-x-13---8-8-x-8---------------------------|
D|------13-x-13------13-x-13-----8-x-8---------------------------|
A|---------------------------------------------------------------|
E|---------------------------------------------------------------|


Then just repeat that verse section twice and the song is over.


Lyrics
We have our master plan,
Bottled and canned
Living in the 352
Steps one and two,
Walk home drunk, wake up confused
With a stranger next to you.
The copied costumes and conversations
They seem to be constantly making this
Into a strip mall kind of town.
I use my credit card to buy alcohol,
Student loan spent at the mall,
And i may be going broke,
But I'm never broken down.

We have our history
Just you and me
But our future gets talked away
Steps 3 and 4,
Staying drunk and sit on this porch,
Planning out how to escape
We're two truck stops off the interstate,
The promised land with a twist of fate,
We're in a town for all the lost and found.
So sleep tight in your smokey room,
Still buzzed from this afternoon,
I may be going broke,
But I'm never broken down.
Tap to rate this tab
# A B C D E F G H I J K L M N O P Q R S T U V W X Y Z