Song name
# A B C D E F G H I J K L M N O P Q R S T U V W X Y Z

Less Than Jake - Best Wishes To Your Black Lung tab

Help us improve GuitareTab! Take a short survey!
Less Than Jake - Anthem
Best Wishes to your Black Lung
Guitar Tab
Tuning: Standard
Transcribed by Doug M. - goldfinger144@email.com


intro:

E----------------------|
B----------------------|
G------9---11--7-------|
D--9---9---11--7---7---|
A--9---7---9---5---7---|
E--7---------------5---|
(the amount of times are hard to define, just listen to it a few times)

ska:

E--7-7-7-7--|
B--7-7-9-9--|
G--8-8-9-9--|
D--9-9-9-9--|
A-----------|  x4
E-----------|
(off-beat skaish, it also has a dirty distortion to it)

pre-chorus:

E----------|
B----------|
G----9-11--|
D--7-9-11--|
A--7-7-9---|
E--5-------|
(strum them sort-of)

chorus:

E----------------------|
B----------------------|
G------9---11--7-------|
D--9---9---11--7---7---|
A--9---7---9---5---7---|
E--7---------------5---|

~back to ska part

chorus:

E----------------------|
B----------------------|
G------9---11--7-------|
D--9---9---11--7---7---|
A--9---7---9---5---7---|
E--7---------------5---|

pre-chorus:

E----------|
B----------|
G----9-11--|
D--7-9-11--|
A--7-7-9---|
E--5-------|

Outro:

E----------------|
B----------------|
G----------------|
D--9999----------|
A--9999-77779999-|
E--7777-trumpety-| x5

Notes:
~this song is simple to tab(but i think its more complicated than this),yet hard to 
so practice
young kids! This is

one of the few ska songs on their new CD, so enjoy it!
~PeAcE
Related for Best Wishes To Your Black Lung tab