Song name
# A B C D E F G H I J K L M N O P Q R S T U V W X Y Z

Less Than Jake - This One Is Going To Leave A Bruise tab

-------------------------------------------------------------------------------
		     This One is Going To Leave A Bruise- Less Than Jake
-------------------------------------------------------------------------------
Tabbed by: identityxcrysis
Email:xrunawayboyx@hotmail.com

Tuning: Standard (EADGBe)
INTRO

lead-
e|-------3-4-6-4-3-6-4-3-1-3-4-3-1-3-----------------------------------------|
B|-----------------------------------4---------------------------------------|
G|---------------------------------------------------------------------------|
D|---------------------------------------------------------------------------|
A|---------------------------------------------------------------------------|
E|---------------------------------------------------------------------------|
Rhythm (10s and 11s
e|----------------------------------------------------------------------------------|
B|----------------------------------------------------------------------------------|
G|8~--8-8-8888-88-8888-6-6-666------------1010-101010-12-12-121212-13-13-13131313---|
D|8~--8-8-8888-88-8888-6-6-666-6-66-6666--1010-101010-12-12-121212-13-13-13131313---|
A|6~--6-6-6666-66-6666-4-4-444-6-66-6666--8-8--8-8-8--10-10-101010-11-11-11111111---|
E|-----------------------------4-44-4444--------------------------------------------|

Verse 1
e|---------------------------------------------------------------------------|
B|---------------------------------------------------------------------------|
G|-8-8-8888-88-8888-8-8-8888-88-8888------------------6-6---6----------------|
D|-8-8-8888-88-8888-8-8-8888-88-8888-6-6-6666-66-6666-6-6---6-6-6---6--------|
A|-6-6-6666-66-6666-6-6-6666-66-6666-6-6-6666-66-6666-4-4---4-6-6---6--------|
E|-----------------------------------4-4-4444-44-4444---------4-4---4--------|

Pre-chorus
e|-------------------------------------------------|
B|-------------------------------------------------|
G|-------------------------------------------------|
D|--8-8-888-10-10-1010101010-6-6-6666-66-6666------|
A|--8-8-888-10-10-1010101010-6-6-6666-66-6666------|
E|--6-6-666-8--8--8-8-8-8-8--4-4-4444-44-4444------|


e|-----------------------------------------------|
B|-----------------------------------------------|
G|----------8-88-8888----------------------------|
D|-8-8-888--8-88-8888-6-6-6666-66-6666-----------|
A|-8-8-888--6-66-6666-6-6-6666-66-6666-----------|
E|-6-6-666------------4-4-4444-44-4444-----------|


Chorus
e|---------------------------------------------------------------------------|
B|---------------------------------------------------------------------------|
G|-88--88-88-8888--66-666----------88-88-88-8888-1010-10101010-66-6666-------|
D|-88--88-88-8888--66-666--66-6666-88-88-88-8888-1010-10101010-66-6666-------|
A|-66--66-66-6666--44-444--66-6666-66-66-66-6666-8-8--8-8-8-8--44-4444-------|
E|-------------------------44-4444-------------------------------------------|
===============================================================================
Tap to rate this tab
# A B C D E F G H I J K L M N O P Q R S T U V W X Y Z