Song name
# A B C D E F G H I J K L M N O P Q R S T U V W X Y Z

Less Than Jake - Summon Monsters tab

-----------------------------------------------------------------------------
       Summon Monsters-Less Than Jake
-----------------------------------------------------------------------------
Tabbed by: TBagger
Email: jackskin93@yahoo.com

Tuning: Normal

INTRO
Just a standard B Bar Chord
e|----------7-----------| 
B|----------7-----------|
G|----------8-----------| x2
D|----------9-----------|
A|----------9-----------|
E|----------7-----------|
Also, there is pick scratch after the second time before the verse


VERSE
e|--------------------------------------------------------------------------|
B|--------------------------------------------------------------------------|
G|---9-9-9--9-9----11-11-11--11-11--------------------------------9-9-9--9-9|
D|---9-9-9--9-9----11-11-11--11-11----9-9-9--9-9----7-7-7--7-7----9-9-9--9-9|
A|---7-7-7--7-7-----9--9--9---9--9----9-9-9--9-9----7-7-7--7-7----7-7-7--7-7|
E|------------------------------------7-7-7--7-7----5-5-5--5-5--------------|


e|-----------------------------------------|
B|-----------------------------------------|
G|---6-6-6--6-6----------------------------|
D|---6-6-6--6-6----9-9-9--9-9----9-9-9--9-9| x2
A|---4-4-4--4-4----9-9-9--9-9----9-9-9--9-9|
E|-----------------7-7-7--7-7----7-7-7--7-7|

Make sure to play the last note into the chorus



CHORUS
e|----------------------------------------|
B|----------------------------------------|
G|----------------------------------------|
D|9-9-9-9----9-9-9-9----7-7-7-7----6-6-6-6| x2
A|9-9-9-9----9-9-9-9----7-7-7-7----6-6-6-6|
E|7-7-7-7----6-6-6-6----5-5-5-5----4-4-4-4|

Then a fill in the chorus

e|------------------------------------------|
B|12---12-11--11--10-9--7-------------------|
G|--11------11--11---------9-8--------------| x2
D|------------------------------9-----------|
A|------------------------------------------|
E|------------------------------------------|


BRIDGE
e|----------|
B|----------|
G|----------| x3
D|--9----7--|
A|--9----7--|
E|--7----5--|

hold out both notes, then it gets fast



e|----------|
B|----------|
G|--6----9--|
D|--6----9--|
A|--4----7--|
E|----------|

And that is all.
The order of the song goes

Intro
Verse
Chorus
Verse
Chorus
Bridge
Chorus

And end the song on the chorus' last note
Any questions, feel free to email me.

More to come from GNV/FLA, and others.


| /  slide up
| \  slide down
| h  hammer-on
| p  pull-off
| ~  vibrato
| +  harmonic
| x  Mute note
===============================================================================
Tap to rate this tab
# A B C D E F G H I J K L M N O P Q R S T U V W X Y Z