Song name
# A B C D E F G H I J K L M N O P Q R S T U V W X Y Z

Less Than Jake - Malachi Richters Liquors Quicker tab

-------------------------------------------------------------------------------
               Malachi Richter's Liquors Quicker – Less Than Jake
-------------------------------------------------------------------------------
Tabbed by: identityxcrysis
Email: xrunawayboyx@hotmail.com

Tuning: Standard (EADGBe)

Verse pt1
e|-------------------------------------------------------|
B|-------------------------------------------------------|
G|-----------6-66-6666-6-6-666-7-77-7777-----------------|
D|-7-7-777---6-66-6666-7-7-777-7-77-7777-----------------|
A|-7-7-777---4-44-4444-4-4-444-5-55-5555-----------------|
E|-5-5-555-----------------------------------------------|

verse pt2
e|-------------------------------------------------------|
B|-------------------------------------------------------|
G|---------9-99-9999-10-10101010-11-11-11111111----------|
D|-7-7-777-9-99-9999-11-11111111-11-11-11111111----------|
A|-7-7-777—7-77-7777-8--8-8-8-8--9--9--9-9-9-9-----------|
E|-5-5-555-----------------------------------------------|

e|-------------------------------------------------------|
B|-------------------------------------------------------|
G|---------4-44-7-77----7----7---7-----------------------|
D|-5-5-555-4-44-7-77-77-7-77-7-7777-7777-----------------|
A|-5-5-555-2-22-5-55-77-5-77-5-7757-7777-----------------|
E|-3-3-333-----------55---55---55-5-5555-----------------|

Chorus
e|-------------------------------------------------------|
B|-------------------------------------------------------|
G|--------7-77-7777-----------9-99-9999------------------|
D|-5555-7-7-77-7777-77777777--9-99-9999------------------|
A|-5555-7-5-55-5555-77777777--7-77-7777------------------|
E|-3333-5-----------55555555-----------------------------|
                   PM------| (Don't palm mute on the last time)

End of chorus
e|-------------------------------------------------------|
B|-------------------------------------------------------|
G|-7-7-777-9-99-9999----7----7---7-----------------------|
D|-7-7-777-9-99-9999-77-7-77-7-7777-7777-----------------|
A|-5-5-555-7-77-7777-77-5-77-5-7757-7777-----------------|
E|-------------------55---55---55-5-5555-----------------|

“Gonna make the evening news”
e|------------------------------------------------------------------------|
B|------------------------------------------------------------------------|
G|-11-11-111111-10-1010-10101010-9-9-999-8-88-8888-7-7-777----------------|
D|-11-11-111111-11-1111-11111111-9-9-999-9-99-9999-7-7-777-7-77-7777------|
A|-9--9--9-9-9--8--8-8--8-8-8-8--7-7-777-6-66-6666-5-5-555-7-77-7777------|
E|---------------------------------------------------------5-55-5555------|





e|-------------------------------------------------------------------|
B|-------------------------------------------------------------------|
G|-4-4-444-9-99-9999---11-11-11-11-11-11-11-11-----------------------|
D|-4-4-444-9-99-9999---11-11-11-11-11-11-11-11-----------------------|
A|-2-2-222-7-77-7777---9--9--9--9--9--9--9--9------------------------|
E|-------------------------------------------------------------------|

Outro chorus (one step up)
e|-------------------------------------------------------|
B|-------------------------------------------------------|
G|--------9-99-9999-----------11-1111-11111111-----------|
D|-7777-9-9-99-9999-99999999--11-1111-11111111-----------|
A|-7777-9-7-77-7777-99999999---9--9-9--9-9-9-9-----------|
E|-5555-7-----------77777777-----------------------------|

e|--------------------------------------------------------------|
B|--------------------------------------------------------------|
G|-13-13-13-13-13-12-12-12-12-12-12-12-9-9-999-11-1111-11111111-|
D|-13-13-13-13-13-13-13-13-13-13-13-13-9-9-999—11-1111-11111111-|
A|-11-11-11-11-11-10-10-10-10-10-10-10-7-7-777--9--9-9--9-9-9-9-|
E|--------------------------------------------------------------|


===============================================================================
Tap to rate this tab
 
# A B C D E F G H I J K L M N O P Q R S T U V W X Y Z