Song name
# A B C D E F G H I J K L M N O P Q R S T U V W X Y Z

Less Than Jake - The Rest Of My Life tab

-------------------------------------------------------------------------------
              The Rest Of My Life - Less Than Jake
-------------------------------------------------------------------------------
Tabbed by:identityxcrysis & Jill Demakes
Email: Masteroftheonering@hotmail.com

Tuning:EADGBE (Standard)

All the other tabs had the melody and the bridge wrong, I figured this out the day the 
were leaked with my friends, this should be 99% correct....

Notes in parenthesis are tied
Melody -
|--------------------------------------------------------|
|--------------------------------------------------------|
|--------------------------------------------------------|
|--------------------------------------------------------|
|-6--3--6--3----------6--3---6--3--------3-4-3-1-----4-3-|
|---------------6------------------4-4-6---------4-4-----|


|---------------------------------------------------------|
|---------------------------------------------------------|
|---------------------------------------------------------|
|---------------------------------------------------------|
|-6--3--6--3----------6--3---6--3--------3-4-3-1----------|
|---------------6------------------4-4-6---------4-4--6-4-|

Verse -
||--4--4--4-4-4-4-|-(4)-4-4--4-4-4-4-|-6--6--6-6-6-6-|-(6)-6-6--6-6-6-6-|
||o-4--4--4-4-4-4-|-(4)-4-4--4-4-4-4-|-8--8--8-8-8-8-|-(8)-8-8--8-8-8-8-|
||--5--5--5-5-5-5-|-(5)-5-5--5-5-5-5-|-8--8--8-8-8-8-|-(8)-8-8--8-8-8-8-|
||--6--6--6-6-6-6-|-(6)-6-6--6-6-6-6-|-8--8--8-8-8-8-|-(8)-8-8--8-8-8-8-|
||o-6--6--6-6-6-6-|-(6)-6-6--6-6-6-6-|-6--6--6-6-6-6-|-(6)-6-6--6-6-6-6-|
||--4--4--4-4-4-4-|-(4)-4-4--4-4-4-4-|---------------|------------------|


|--8---8---8--8--8--8-|--(8)--8--8---8--8--8--8-|
|--9---9---9--9--9--9-|--(9)--9--9---9--9--9--9-|
|-10--10--10-10-10-10-|-(10)-10-10--10-10-10-10-|
|-10--10--10-10-10-10-|-(10)-10-10--10-10-10-10-|
|--8---8---8--8--8--8-|--(8)--8--8---8--8--8--8-|
|---------------------|-------------------------|


|-4--4--4-4-4-4-|-(4)-4-4--4-4-4-4--||
|-6--6--6-6-6-6-|-(6)-6-6--6-6-6-6-o||
|-6--6--6-6-6-6-|-(6)-6-6--6-6-6-6--||
|-6--6--6-6-6-6-|-(6)-6-6--6-6-6-6--||
|-4--4--4-4-4-4-|-(4)-4-4--4-4-4-4-o||
|---------------|-------------------||

Chorus
||--4--4--4-4-4-4-|-(4)-4-4--4-4-4-4-|-6--6--6-6-6-6-|-(6)-6-6--6-6-6-6--|
||o-4--4--4-4-4-4-|-(4)-4-4--4-4-4-4-|-8--8--8-8-8-8-|-(8)-8-8--8-8-8-8--|
||--5--5--5-5-5-5-|-(5)-5-5--5-5-5-5-|-8--8--8-8-8-8-|-(8)-8-8--8-8-8-8--|
||--6--6--6-6-6-6-|-(6)-6-6--6-6-6-6-|-8--8--8-8-8-8-|-(8)-8-8--8-8-8-8--|
||o-6--6--6-6-6-6-|-(6)-6-6--6-6-6-6-|-6--6--6-6-6-6-|-(6)-6-6--6-6-6-6--|
||--4--4--4-4-4-4-|-(4)-4-4--4-4-4-4-|---------------|-------------------|


|-3--3--3-3-3-3-|-(3)-3-3--3-3-3-3-|-4--4--4-4-4-4-|-(4)-4-4--4-4-4-4--||
|-5--5--5-5-5-5-|-(5)-5-5--5-5-5-5-|-6--6--6-6-6-6-|-(6)-6-6--6-6-6-6-o||
|-5--5--5-5-5-5-|-(5)-5-5--5-5-5-5-|-6--6--6-6-6-6-|-(6)-6-6--6-6-6-6--||
|-5--5--5-5-5-5-|-(5)-5-5--5-5-5-5-|-6--6--6-6-6-6-|-(6)-6-6--6-6-6-6--||
|-3--3--3-3-3-3-|-(3)-3-3--3-3-3-3-|-4--4--4-4-4-4-|-(4)-4-4--4-4-4-4-o||
|---------------|------------------|---------------|-------------------||

Bridge-
||--1--1--1-1-1-1-|-(1)-1-1--1-1-1-1-|-2--2--2-2-2-2-|-(2)-2-2--2-2-2-2---||
||o-1--1--1-1-1-1-|-(1)-1-1--1-1-1-1-|-2--2--2-2-2-2-|-(2)-2-2--2-2-2-2--o||
||--2--2--2-2-2-2-|-(2)-2-2--2-2-2-2-|-3--3--3-3-3-3-|-(3)-3-3--3-3-3-3---||
||--3--3--3-3-3-3-|-(3)-3-3--3-3-3-3-|-4--4--4-4-4-4-|-(4)-4-4--4-4-4-4---||
||o-3--3--3-3-3-3-|-(3)-3-3--3-3-3-3-|-4--4--4-4-4-4-|-(4)-4-4--4-4-4-4--o||
||--1--1--1-1-1-1-|-(1)-1-1--1-1-1-1-|-2--2--2-2-2-2-|-(2)-2-2--2-2-2-2---||


|-1--1--1-1-1-1-|-(1)-1-1--1-1-1-1-|-6--6--6-6-6-6-|-(6)-6-6--6-6-6-6-|
|-1--1--1-1-1-1-|-(1)-1-1--1-1-1-1-|-8--8--8-8-8-8-|-(8)-8-8--8-8-8-8-|
|-2--2--2-2-2-2-|-(2)-2-2--2-2-2-2-|-8--8--8-8-8-8-|-(8)-8-8--8-8-8-8-|
|-3--3--3-3-3-3-|-(3)-3-3--3-3-3-3-|-8--8--8-8-8-8-|-(8)-8-8--8-8-8-8-|
|-3--3--3-3-3-3-|-(3)-3-3--3-3-3-3-|-6--6--6-6-6-6-|-(6)-6-6--6-6-6-6-|
|-1--1--1-1-1-1-|-(1)-1-1--1-1-1-1-|---------------|------------------|


|-4--4--4-4-4-4-|-(4)-4-4--4-4-4-4-|-4--4--4-4-4-4-|-(4)-4-4--4-4-4-4-|
|-6--6--6-6-6-6-|-(6)-6-6--6-6-6-6-|-6--6--6-6-6-6-|-(6)-6-6--6-6-6-6-|
|-6--6--6-6-6-6-|-(6)-6-6--6-6-6-6-|-6--6--6-6-6-6-|-(6)-6-6--6-6-6-6-|
|-6--6--6-6-6-6-|-(6)-6-6--6-6-6-6-|-6--6--6-6-6-6-|-(6)-6-6--6-6-6-6-|
|-4--4--4-4-4-4-|-(4)-4-4--4-4-4-4-|-4--4--4-4-4-4-|-(4)-4-4--4-4-4-4-|
|---------------|------------------|---------------|------------------|


 Mid-tro
|-4--4--4-4-4-4-|-(4)-4-4--4-4-4-4-|-6--6--6-6-6-6-|-(6)-6-6--6-6-6-6-|
|-4--4--4-4-4-4-|-(4)-4-4--4-4-4-4-|-8--8--8-8-8-8-|-(8)-8-8--8-8-8-8-|
|-5--5--5-5-5-5-|-(5)-5-5--5-5-5-5-|-8--8--8-8-8-8-|-(8)-8-8--8-8-8-8-|
|-6--6--6-6-6-6-|-(6)-6-6--6-6-6-6-|-8--8--8-8-8-8-|-(8)-8-8--8-8-8-8-|
|-6--6--6-6-6-6-|-(6)-6-6--6-6-6-6-|-6--6--6-6-6-6-|-(6)-6-6--6-6-6-6-|
|-4--4--4-4-4-4-|-(4)-4-4--4-4-4-4-|---------------|------------------|


||---8---8---8--8--8--8-|--(8)--8--8---8--8--8--8-|
||o--9---9---9--9--9--9-|--(9)--9--9---9--9--9--9-|
||--10--10--10-10-10-10-|-(10)-10-10--10-10-10-10-|
||--10--10--10-10-10-10-|-(10)-10-10--10-10-10-10-|
||o--8---8---8--8--8--8-|--(8)--8--8---8--8--8--8-|
||----------------------|-------------------------|


|-4--4--4-4-4-4-|-(4)-4-4--4-4-4-4---||
|-6--6--6-6-6-6-|-(6)-6-6--6-6-6-6--o||
|-6--6--6-6-6-6-|-(6)-6-6--6-6-6-6---||
|-6--6--6-6-6-6-|-(6)-6-6--6-6-6-6---||
|-4--4--4-4-4-4-|-(4)-4-4--4-4-4-4--o||
|---------------|--------------------||


   Outro
||--4--4--4-4-4-4-|-(4)-4-4--4-4-4-4-|-6--6--6-6-6-6-|-(6)-6-6--6-6-6-6--|
||o-4--4--4-4-4-4-|-(4)-4-4--4-4-4-4-|-8--8--8-8-8-8-|-(8)-8-8--8-8-8-8--|
||--5--5--5-5-5-5-|-(5)-5-5--5-5-5-5-|-8--8--8-8-8-8-|-(8)-8-8--8-8-8-8--|
||--6--6--6-6-6-6-|-(6)-6-6--6-6-6-6-|-8--8--8-8-8-8-|-(8)-8-8--8-8-8-8--|
||o-6--6--6-6-6-6-|-(6)-6-6--6-6-6-6-|-6--6--6-6-6-6-|-(6)-6-6--6-6-6-6--|
||--4--4--4-4-4-4-|-(4)-4-4--4-4-4-4-|---------------|-------------------|


                                                                       4x
|-3--3--3-3-3-3-|-(3)-3-3--3-3-3-3-|-4--4--4-4-4-4-|-(4)-4-4--4-4-4-4--||
|-5--5--5-5-5-5-|-(5)-5-5--5-5-5-5-|-6--6--6-6-6-6-|-(6)-6-6--6-6-6-6-o||
|-5--5--5-5-5-5-|-(5)-5-5--5-5-5-5-|-6--6--6-6-6-6-|-(6)-6-6--6-6-6-6--||
|-5--5--5-5-5-5-|-(5)-5-5--5-5-5-5-|-6--6--6-6-6-6-|-(6)-6-6--6-6-6-6--||
|-3--3--3-3-3-3-|-(3)-3-3--3-3-3-3-|-4--4--4-4-4-4-|-(4)-4-4--4-4-4-4-o||
|---------------|------------------|---------------|-------------------||

| /  slide up
|   slide down
| h  hammer-on
| p  pull-off
| ~  vibrato
| +  harmonic
| x  Mute note
===============================================================================
Tap to rate this tab
# A B C D E F G H I J K L M N O P Q R S T U V W X Y Z