Song name
# A B C D E F G H I J K L M N O P Q R S T U V W X Y Z

Less Than Jake - Your Love tab

Help us improve GuitareTab! Take a short survey!
----------------------------------------------------------------------------|
----------------------------------------------------------------------------|
--This is my very first own Tab. Sy but i havent tabbed the strumming too.--|But it is
to figure out. :-) Wish Many Fun -|
--                                                                        --
--Greetz Brady M.H                                                        --
----------------------------------------------------------------------------|
----------------------------------------------------------------------------|
Verse:

-----------|
-----------|
--6--------| 2x
--6--8--6--|
--4--8--6--|
-----6--4--|

Chorus:

--------------------|
--------------------|
--------------------|
--4--8--6--8--4--6--|
--4--8--6--8--4--6--|
--2--6--4--6--2--4--|

Verse:

-----------|
-----------|
--6--------| 2x
--6--8--6--|
--4--8--6--|
-----6--4--|

Chorus:

--------------------|
--------------------|
--------------------|
--4--8--6--8--4--6--|
--4--8--6--8--4--6--|
--2--6--4--6--2--4--|

Bridge:

--------------|
--------------|
--9-----9-----|
--9--8--9--8--|
--7--8--7--8--|
-----6-----6--|

Verse:

-----------|
-----------|
--6--------| 2x
--6--8--6--|
--4--8--6--|
-----6--4--|

Chorus:

--------------------|
--------------------|
--------------------|
--4--8--6--8--4--6--|
--4--8--6--8--4--6--|
--2--6--4--6--2--4--|

Outro:

-----------------------|
-----------------------|
--------------------6--|
--4--8--6--8--4--6--6--|
--4--8--6--8--4--6--4--|
--2--6--4--6--2--4-----|
Related for Your Love tab