Song name
# A B C D E F G H I J K L M N O P Q R S T U V W X Y Z

Less Than Jake - Were Not Gonna Take It tab

Intro x1 (let ring)
e|--------------------|
B|--------------------|
G|-5--~~~~~~~~~~~~~~--|
D|-5--~~~~~~~~~~~~~~--|
A|-3--~~~~~~~~~~~~~~--|
E|--------------------|
We're not gonna take it......

Fill x2
e|--------------------------|
B|--------------------------|
G|-9-x-x-8-x-x-6-x-4-4-4-4--|
D|-9-x-x-8-x-x-6-x-4-4-4-4--|
A|-7-x-x-6-x-x-4-x-2-2-2-2--|
E|--------------------------|

Verse x2
e|------------------------------------------------------------------|
B|------------------------------------------------------------------|
G|-9-9-9-9-----------9-9-9-9-----------9-9-9-9-----------9-9-9-9-9--|
D|-9-9-9-9--9-9-9-9--9-9-9-9--7-7-7-7--9-9-9-9--9-9-9-9--9-9-9-9-9--|
A|-7-7-7-7--9-9-9-9--7-7-7-7--7-7-7-7--7-7-7-7--9-9-9-9--7-7-7-7-7--|
E|----------7-7-7-7-----------5-5-5-5-----------7-7-7-7-------------|
      E        B        E        A        E        B       E


Lyrics.

(E)We've got the (B) right to choose and 
(E)There ain't no (A) way we lose it
(E)This is our (B) life this is our (E)songggg..
(E)We'll fight the (B) powers that be just
(E)Don't pick our (A) destiny cause
(E)You don't know (B) us you don't be(E)long.....

Chorus x1
e|--------------------------------------------------|
B|--------------------------------------------------|
G|-9-9-9-9---------9-9-9-9---------9-9-9-9----------|
D|-9-9-9-9-9-9-9-9-9-9-9-9-7-7-7-7-9-9-9-9-9-9-9-9--|
A|-7-7-7-7-9-9-9-9-7-7-7-7-7-7-7-7-7-7-7-7-9-9-9-9--|
E|---------7-7-7-7---------5-5-5-5---------7-7-7-7--|

FILL x1
VERSE x2

Bridge x2
e|-x-7-x-7-x-6-x-6-x-4-x-4--|
B|-x-9-x-9-x-8-x-8-x-6-x-6--|
G|-x-9-x-9-x-8-x-8-x-6-x-6--|
D|-x-7-x-7-x-6-x-6-x-4-x-4--|
A|-x-7-x-7-x-6-x-6-x-4-x-4--|
E|-x-7-x-7-x-6-x-6-x-4-x-4--|
woah-oh-oh!

Then
e|----------------------------------|
B|----------------------------------|
G|-1-----------------------------4--|
D|-2--------3---------4----------4--|
A|-2--------3---------4----------2--|
E|-0--------1---------2-------------|
we're right......we're free......

FILL x1
CHORUS x1
Tap to rate this tab
 
# A B C D E F G H I J K L M N O P Q R S T U V W X Y Z