Song name
# A B C D E F G H I J K L M N O P Q R S T U V W X Y Z

Less Than Jake - Abandon Ship tab

-------------------------------------------------------------------------------
			     Abandon Ship - Less Than Jake
-------------------------------------------------------------------------------
Tabbed by: identityxcrysis
Email: xrunawayboyx@hotmail.com

Tuning: Standard (EADGBe)

intro
e|---------------------------------------------------|
B|-----2--------2------------------------------------|
G|---2---2----2---2-------1---2---1------------------|     
D|-0--------------------2---2---2---2----------------|    x2
A|---------0-----------------------------------------|
E|-------------------0-------------------------------|

or

e|---------------------------------------|
B|---------------------------------------|
G|-----6--------6------------------------|
D|---7---7----7---7------6---7---6-------|  x2
A|-5-------------------7---7---7---7-----|
E|----------5--------0-------------------|

Whichevers easiest to you

First part of first verse
e|-5-5-5555-55-5555-5-5-5555-55-5555-----------------------------------------|
B|-5-5-5555-55-5555-5-5-5555-55-5555-----------------------------------------|
G|-7-7-7777-77-7777-7-7-7777-77-7777-------------------9-9-9999-99-9999------|
D|-7-7-7777-77-7777-7-7-7777-77-7777--7-7-7777-77-7777-9-9-9999-99-9999------|
A|-5-5-5555-55-5555-5-5-5555-55-5555--7-7-7777-77-7777-7-7-7777-77-7777------|
E|------------------------------------5-5-5555-55-5555-----------------------|

Second half of first verse
e|---------5-5-5-5---------5-5-5-5-------------------------------------------|
B|---------5-5-5-5---------5-5-5-5-------------------------------------------|
G|-7-7-777-7-7-7-7-7-7-777-7-7-7-7------------------9-9-9999-99-9999---------|
D|-7-7-777-7-7-7-7-7-7-777-7-7-7-7-7-7-7777-77-7777-9-9-9999-99-9999---------|
A|-5-5-555-5-5-5-5-5-5-555-5-5-5-5-7-7-7777-77-7777-7-7-7777-77-7777---------|
E|---------------------------------5-5-5555-55-5555--------------------------|

Pre-chorus
e|----------------------------|
B|----------------------------|
G|---------7-7-7~-------------|
D|-9-9-9~--7-7-7~-------------|
A|-9-9-9~--5-5-5~-------------|
E|-7-7-7~---------------------|

Chorus
e|------------------------------------------------|
B|------------------------------------------------|
G|-7-7-777------------9-9-9999-9-9-9-9------------|
D|-7-7-777--7-7-7-777-9-9-9999-9-9-9-9------------|
A|-5-5-555--7-7-7-777-7-7-7777-7-7-7-7------------|
E|----------5-5-5-555-----------------------------|

chorus end
e|------------------------------------------------|
B|------------------------------------------------|
G|-7-7-777----------------------------------------|
D|-7-7-777--7-7-7-777----------2222222------------|
A|-5-5-555--7-7-7-777-2222222222222222------------|
E|----------5-5-5-555-0000000000000000------------|
                      PM---------|

bridge
e|-------------------------------------------------|
B|-------------------------------------------------|
G|-----------7-7-7777-----------xxxx-77-xxxx-77----|
D|-4-4--777--7-7-7777--4-4-777--xxxx-77-xxxx-77----|
A|-4-4--777--5-5-5555--4-4-777--xxxx-55-xxxx-55----|
E|-2-2--555------------2-2-555---------------------|

end of the bridge
e|------------------------------------------------|
B|------------------------------------------------|
G|------------------------------------------------|
D|-9-9-9-9-9-9-9-9-5-5-5-5-5-5-5-5----------------|
A|-9-9-9-9-9-9-9-9-5-5-5-5-5-5-5-5----------------|
E|-7-7-7-7-7-7-7-7-3-3-3-3-3-3-3-3----------------|
PM---------------------------------|

Transition is the same chords as the verse

And end with
e|-----------------------------------------|
B|-----------------------------------------|
G|-7-----2---------------------------------|
D|-7--7--2---------------------------------|
A|-5--7--0----7~---------------------------|
E|----5-------5~---------------------------|


Second verse is the same as the first
And the reintro is the same too
The end! :D

===============================================================================
Tap to rate this tab
# A B C D E F G H I J K L M N O P Q R S T U V W X Y Z