Less Than Jake - Sobreity Is A Serious Business And Business Isnt So Good tab

Tabbed by: hipeople1


Tuning: Standard

Main part:

e|---------------------------------------------------------------------------|
B|---------------------------------------------------------------------------|
G|---------------------------------------------------------------------------|
D|----------6--------------------7-------------------------------------------|
A|-7--------4--------4-----------5-------------------------------------------|
E|-5-----------------2-------------------------------------------------------|

Middle part: (0:15)

e|---------------------------------------------------------------------------|
B|---------------------------------------------------------------------------|
G|---------------------------------------------------------------------------|
D|-------7--7----------------------------------------------------------------|
A|---7-7-5--5----------------------------------------------------------------|
E|---5-5---------------------------------------------------------------------|

End on:
e|---------------------------------------------------------------------------|
B|---------------------------------------------------------------------------|
G|---------------------------------------------------------------------------|
D|---------------------------------------------------------------------------|
A|--7------------------------------------------------------------------------|
E|--5------------------------------------------------------------------------|

That's it, really. 
Tap to rate this tab
 
# A B C D E F G H I J K L M N O P Q R S T U V W X Y Z