Song name
# A B C D E F G H I J K L M N O P Q R S T U V W X Y Z

Less Than Jake - Golden Age Of My Negative Ways tab

-------------------------------------------------------------------------------
			     Golden Age of My Negative Ways
-------------------------------------------------------------------------------
Tabbed by:TheTroy

Tuning: Standard

Intro  (00:00 - 00:17)
e|---------------------------------------------------------------------------|
B|-2-2-x-3-3-x-2-2-x-5-5-x-2-2-x-3-3-x-3-2-----------------------------------|
G|-2-2-x-2-2-x-2-2-x-2-2-x-2-2-x-2-2-x-2-2-2-2-------------------------------|
D|-2-2-x-2-2-x-2-2-x-2-2-x-2-2-x-2-2-x-0-0-2-2-------------------------------|
A|-0-0-x-0-0-x-0-0-x-0-0-x-0-0-x-0-0-x-----0-0-------------------------------|
E|---------------------------------------------------------------------------|

Into Trumpet                                          
e|-------------------|-------------2-------|------------------|------------3-|
B|-3------3-5-3-2----|--3------3-5---5-3-2-|3------3-5-3-2----|-3------3-5--5|
G|---2--2---------2-2|----2--2-------------|--2--2---------2-2|---2--2-------|
D|-------------------|---------------------|------------------|--------------|
A|-------------------|---------------------|------------------|--------------|
E|-------------------|---------------------|------------------|--------------|

Verse (00:17 - 00:34)
e|---------------------------------------------------------------------------|
B|---------------------------------------------------------------------------|
G|-9999-----------------7777-77-----------9999------------------------7777-77|
D|-7777-7777-7777-7777--5555-55-9999-7/9--7777-7777-7777-7777---------5555-55|
A|------4444-5555-4444----------7777-5/7-------4444-5555-4444-9999-99--------|
E|------------------------------------------------------------7777-77--------|
                                                              ....    ....
Intro (00:34 - 00:51)

Verse (00:51 - 1:08)

Bridge (1:08 - 1:21)
e|---------------------------------------------------------------------------|
B|---------------------------------------------------------------------------|
G|-777777777777777777777777-77777777-777777777777777777777777-77777777-------|
D|-777777777777777777777777-44445555-777777777777777777777777-44445555-999999|
A|-555555555555555555555555----------555555555555555555555555----------777777|
E|---------------------------------------------------------------------------|

e|---------------------------------------------------------------------------|
B|---------------------------------------------------------------------------|
G|---------------------------------------------------------------------------|
D|-9999999999-------------------------12-12-12-12-12-12-12-12----------------|
A|-7777777777-10-10-10-10-10-10-10-10-10-10-10-10-10-10-10-10----------------|
E|------------8--8--8--8--8--8--8--8-----------------------------------------|

Bridge Trumpet
e|---------------------------------10----12----14--14-12-10-12---------------|
B|---10-8-7----------10-8-7-----------10----10------------------10--8-7------|
G|-7--------7-9-7--7--------7-9-7---------------------------------------7-9p7|
D|---------------------------------------------------------------------------|
A|---------------------------------------------------------------------------|
E|---------------------------------------------------------------------------|

e|---------------14--12-10-12-10--10~----------------------------------------|
B|-7--8--10~--10-------------------------------------------------------------|
G|---------------------------------------------------------------------------|
D|---------------------------------------------------------------------------|
A|---------------------------------------------------------------------------|
E|---------------------------------------------------------------------------|

 Intro (1:21- End)


************************************

| /   slide up
| \   slide down
| h   hammer-on
| p   pull-off
| ~   vibrato
| +   harmonic
| x   Mute note
| b   Bend
| pb  Pre-bend
| br  Bend release
| pbr Pre-bend release
| brb Bend release bend

************************************
Tap to rate this tab
 
# A B C D E F G H I J K L M N O P Q R S T U V W X Y Z