Less Than Jake - This Ones Gonna Leave A Bruise tab

-------------------------------------------------------------------------------
			     This ones gonna leave a bruise
-------------------------------------------------------------------------------
Tabbed by: TheTroy
Tuning: Standard

Intro (00:00-00:17) Rhythm
e|---------------------------------------------------------------------------|
B|---------------------------------------------------------------------------|
G|-8~--8-8-8-8-8-8-8-8-6-6-6-6-8-8-8-8---------------------------------------|
D|-8~--8-8-8-8-8-8-8-8-6-6-6-6-6-6-6-6-3-3-3-3---------6-6-6-6-6-------------|
A|-6~--6-6-6-6-6-6-6-6-4-4-4-4---------3-3-3-3-6-6-6-6-6-6-6-6-6-------------|
E|-------------------------------------1-1-1-1-3-3-3-3-4-4-4-4-4-------------|

Intro Lead
e|---------------------------------------------------------------------------|
B|-8-9-11-9-8-11-9-8----8-9-8----8-------------------------------------------|
G|-------------------10-------10---8~----------------------------------------|
D|---------------------------------------------------------------------------|
A|---------------------------------------------------------------------------|
E|---------------------------------------------------------------------------|

Verse (00:17-00:30)
e|---------------------------------------------------------------------------|
B|---------------------------------------------------------------------------|
G|-8-8-8-8-8-8-8-8-8-8-8-8-8-8-8-8-----------------6-6-6---------------------|
D|-8-8-8-8-8-8-8-8-8-8-8-8-8-8-8-8-6-6-6-6-6-6-6-6-6-6-6-6-6-6---------------|
A|-6-6-6-6-6-6-6-6-6-6-6-6-6-6-6-6-6-6-6-6-6-6-6-6-4-4-4-6-6-6---------------|
E|---------------------------------4-4-4-4-4-4-4-4-------4-4-4---------------|

Chorus (00:30-00:43)
e|---------------------------------------------------------------------------|
B|---------------------------------------------------------------------------|
G|---------------------8-8-8-88-88-8---------8-88-8-xx6-xx6-xx6-xx6----------|
D|-8-8-8-8/10-1010-10--8-8-8-88-88-8--8-8-8-88-88-8-xx6-xx6-xx6-xx6----------|
A|-8-8-8-8/10-1010-10--6-6-6-66-66-6--8-8-8-86-66-6-xx4-xx4-xx4-xx4----------|
E|-6-6-6-6/8--8-8--8------------------6-6-6-6--------------------------------|

Intro (00:43-00-56)

Verse (00:56-1:10)

Chorus (1:10-1:24)

Bridge (1:24-1:51)
e|---------------------------------------------------------------------------|
B|---------------------------------------------------------------------------|
G|-8-8--8-8-8--8--------6-6---6-8-8--8-8-8--8-10-10--10\6-6---6-8-8----------|
D|-8-8--8-8-8--8-6-6--6-6-6-6-6-8-8--8-8-8--8-10-10--10\6-6-6-6-8-8----------|
A|-6-6--6-6-6--6-6-6--6-4-4-6-4-6-6--6-6-6--6-8--8---8-\4-4-6-4-6-6----------|
E|---------------4-4--4-----4-------------------------------4----------------|

Ending (1:51-2:26) its just the intro with some pauses in rythm

Hope timing isn't too difficult to understand. Their rapid strumming makes it
hard to get strum patterns easy to understand.
************************************

| /   slide up
| \   slide down
| h   hammer-on
| p   pull-off
| ~   vibrato
| +   harmonic
| x   Mute note
| b   Bend
| pb  Pre-bend
| br  Bend release
| pbr Pre-bend release
| brb Bend release bend

************************************
Tap to rate this tab
 
# A B C D E F G H I J K L M N O P Q R S T U V W X Y Z