Song name
# A B C D E F G H I J K L M N O P Q R S T U V W X Y Z

Less Than Jake - City Of Gainesville tab

Key:     ))) = let ring     / = slide


1. Intro/Verse:

E---------------------------------------------------------------------|
a---------------------------------------------------------------------|
d---------------------------------------------------------------------|
g---10-10-10-10---10-10-10-10---10-10-10-10---10-10-10-10---8-8-8-8---|
b---11-11-11-11---11-11-11-11---11-11-11-11---11-11-11-11---9-9-9-9---|
e-----------------13-13-13-13-----------------13-13-13-13-------------|

E---------------------------------]
a---------------------------------]
d---------------------------------]
g---8--8--8--8-----7--7--7--7-----]
b---9--9--9--9-----9--9--9--9-----]
e---11-11-11-11----11-11-11-11----]



2. Chorus (It's not really a chorus but for the purposes of this tab it'll be referred to as such)

E-------------------------------------------------------]
a-------------------------------------------------------]
d---12-12-12-12---10-10-10-10---8-8-8-8---8--8--8--8----]
g---10-10-10-10---8--8--8--8----7-7-7-7---8--8--8--8----]
b---11-11-11-11---9--9--9--9----8-8-8-8---11-11-11-11---]
e---10-10-10-10---8--8--8--8----6-6-6-6---11-11-11-11---]



3. Chorus transition (Played at the end of each chorus to transition into the next 
verse. I designated the first time II designates the second)

E-------------------------------I------/-----II------------]
a-------------------------------I---6)))/11---II---6-------]
d---10-10-10-10---10-10-10-10---I---8)))/13---II---8-------]
g---8--8--8--8----8--8--8--8----I---8)))/13---II---8-------]
b---9--9--9--9----9--9--9--9----I---6)))/11---II---6-------]
e---8--8--8--8----8--8--8--8----I---6)))/11---II---6-------]

PLAYING ORDER:

1.: x2
1.: x2
2.: x3
3.: x1
1.: x2
1.: x2
2.: x3
3.: x1
CONTINUE INTO: The State Of Florida


The State Of Florida Tab COMING SOON.
Tap to rate this tab
 
# A B C D E F G H I J K L M N O P Q R S T U V W X Y Z