Song name
# A B C D E F G H I J K L M N O P Q R S T U V W X Y Z

Less Than Jake - The State Of Florida tab

-------------------------------------------------------------------------
		        State of Florida by Less Than Jake
-------------------------------------------------------------------------
Tabbed by:LesThanPaul
Tuning:Standard

Pretty simple three chord song that wasn't tabbed yet. I didn't add the
amount of times to strum or anything like that, but tried to convey timing
with the spacing. I also didn't add any mutes or accents as those should be
fairly obvious. The solo isn't note for note perfect, but it's at least 95%.

Verse
e|-------------------------------------------------|
B|-------------------------------------------------|
G|----------8------10-----10-----10-----10-----10--|
D|-8--------8------10--8--10--8--10--8--10--8--10--| (2 times)
A|-8--------6------8---8--8---8--8---8--8---8--8---|
E|-6-------------------6------6------6------6------|

Chorus
e|----------------------------------------------|
B|----------------------------------------------|
G|-------8-----------8-----------8-----------8--|
D|-8-----8-----8-----8-----8-----8-----8-----8--| (2 times)
A|-8-----6-----8-----6-----8-----6-----8-----6--|
E|-6-----------6-----------6-----------6--------|

e|---------------|
B|---------------|
G|-8-8-8-8-8-7---| There is a subtle riff played on the 2nd and
D|-------------8-| the 4th D# that goes something like this
A|---------------|
E|---------------|


Solo
e|----------11--------13--------11--11-11-10-11-10--|
B|-11-11-11-----11-11-----11-11---------------------|
G|--------------------------------------------------|
D|--------------------------------------------------|
A|--------------------------------------------------|
E|--------------------------------------------------|

e|-------11--------13--------11--11-11-10-11-10--|
B|-11-11-----11-11-----11-11---------------------|
G|-----------------------------------------------|
D|-----------------------------------------------|
A|-----------------------------------------------|
E|-----------------------------------------------|

e|-------------10---------------------------11-11-11-10--------------------------|
B|----------------11--------------13-11-----------------11--13-13-13-11-11-10h11-|
G|-10-12-12-10--------10-12-12-10--------10--------------------------------------|
D|-------------------------------------------------------------------------------|
A|-------------------------------------------------------------------------------|
E|-------------------------------------------------------------------------------|

e|----------11--------13--------11--11-11-10-11-10--|
B|-11-11-11-----11-11-----11-11---------------------|
G|--------------------------------------------------|
D|--------------------------------------------------|
A|--------------------------------------------------|
E|--------------------------------------------------|

e|-------11--------13--------11--11-11-10-11-10--|
B|-11-11-----11-11-----11-11---------------------|
G|-----------------------------------------------|
D|-----------------------------------------------|
A|-----------------------------------------------|
E|-----------------------------------------------|

e|-------------10---------------------------11-11-11-10----------|
B|----------------11--------------13-11-----------------11-------|
G|-10-12-12-10--------10-12-12-10--------10------------------10--| (Last chord is strummed many
D|-----------------------------------------------------------10--|  times with various accents and
A|-----------------------------------------------------------8---|  mutes. Slide down 
E|---------------------------------------------------------------| fretboard at the end)

outro
e|-------------------|
B|-------------------|
G|-8----8----8-------|   Play the riff from the chorus on all the
D|-8----8----8---8-8-|   D#'s if you want to
A|-6----6----6---8-8-|
E|---------------6-6-|

Structure:
Verse 
Chorus
Verse
Chorus
Solo
Chorus
Outro

That's it, pretty easy. Hope you enjoyed it, please rate and comment!
Tap to rate this tab
# A B C D E F G H I J K L M N O P Q R S T U V W X Y Z