Song name
# A B C D E F G H I J K L M N O P Q R S T U V W X Y Z

Less Than Jake - Look What Happened tab

Look what happened by:Less than jake

Tab by:Aaron Meredith

Standard tuning- (E-A-D-G-B-e)

This tab should help you out. Please rate & comment!


Intro: (some say it is played on Bass. I think its guitar)
e|--------------------------------------------------------|
B|--------------------------------------------------------|
G|--------------------------------------------------------|
D|----2-2------2------2-----2-2----------2-------2--------|
A|----------00-----------------------00-------------------|
E|--0-----4-------44-----2--------4----------44-----------|
                  
Verse: (palm muting)
E|--------------------------------------------|
B|--------------------------------------------|
G|-------------------44444444---22222222------|
D|2222222222222222---44444444---22222222------|x4
A|2222222222222222---22222222---00000000------|
E|0000000000000000----------------------------|

Chorus: (first 3 parts)
e|-------------------------------------|
B|-------------------------------------|
G|-9-----------------------------------|
D|-9-x8---9-77-777--4------777--999----|x3
A|-7------9-77-777--4-x8---777--999----|
E|--------7-55-555--2------555--777----|

Chorus: (last part)
e|-------------------------------------|
B|-------------------------------------|
G|-9-----------------------------------|
D|-9-x8---9-77-666---4------777--999---|
A|-7------9-77-666---4-x8---777--999---|
E|--------7-55-444---2------555--777---|

Verse 2: (palm muting)
e|--------------------------------------------|
B|--------------------------------------------|
G|-9999999999999999---------------------------|
D|-9999999999999999---99999999---77777777-----|
A|-7777777777777777---99999999---77777777-----|
E|--------------------77777777---55555555-----|

REPEAT CHORUS:

REPEAT INTRO:

REPEAT CHORUS: (x2)

Ending: last 2 bars of chorus
e|------------------------------------------------|
B|-----------------555545-------------------------|
G|----------22-24--444444----------4444-2222------|
D|--22-22---22-24--444444---22-22--4444-2222--2---|
A|--22-22---00-02-----------22-22--2222-0000--2---|
E|--00-00-------------------00-00-------------0---|
Tap to rate this tab
# A B C D E F G H I J K L M N O P Q R S T U V W X Y Z