Song name
# A B C D E F G H I J K L M N O P Q R S T U V W X Y Z

Less Than Jake - Liquor Store tab

Intro:

----7xx-x777xx-x777xx-x777---9--------|
----7xx-x777xx-x777xx-x777---9--------|
----8xx-x888xx-x888xx-x888-9-9-9------|
----9xx-x999xx-x999xx-x999-9---9------|
---------------------------7---7------|
--------------------------------------|

Verse: x5

----77x7x7--77x7x7-99x9x9-77x7x7------|
----77x7x7--99x9x9-99x9x9-99x9x9------|
----88x8x8--99x9x9-99x9x9-99x9x9------|
----99x9x9--99x9x9--------99x9x9------|
--------------------------------------|
--------------------------------------|

Chorus: x4

--------------------------------------|
--------------------------------------|
---------9-99--------9-99-------------| End on E
---9-99--9-99--7-77--9-99-------------|
---9-99--7-77--7-77--7-77-------------|
---7-77--------5-55-------------------|

Bridge:

--77x--H--77x7x7x7--77x7x7x7--77x7x7x7-------------|
--77x--O--77x7x7x7--99x9x7x7--77x7x7x7-------------|
--88x--R--88x8x8x8--99x9x8x8--88x8x8x8--------9----|
--99x--N--99x9x9x9--99x9x9x9--99x9x9x9----7---9----|
-------S---------------------------------\7---7----|
-----------------------------------------\5--------|

Chorus: x4 (Listen for a muted E)

Verse: x2

Outro: x5

--------------------------------------|
--------------------------------------|
--------9999--------9999--------------|
--9999--9999--7777--9999--------------| End on B
--9999--7777--7777--7777--------------|
--7777--------5555--------------------|
Tap to rate this tab
 
# A B C D E F G H I J K L M N O P Q R S T U V W X Y Z