Song name
# A B C D E F G H I J K L M N O P Q R S T U V W X Y Z

Less Than Jake - We Go Together tab

First time submission, Wrote the tab for both higher voices and lower voices. Both sound 
"Correct" so use whichever works best with you.




Verse/Chorus (Lower Voice)

E|-----------------------------------------|
B|-----------------------------------------|
G|--7--x--7--x--4--x--4--------------------|
D|--7--x--7--x--4--x--4--5--x--5--7--x--7--|
A|--5--x--5--x--2--x--2--5--x--5--7--x--7--|
E|-----------------------3--x--3--5--x--5--|


Verse/Chorus (Higher Voice)

E|--------------------------------------|
B|--------------------------------------|
G|--9--x--9--6--x--6--------------------|
D|--9--x--9--6--x--6--7--x--7--9--x--9--|
A|--7--x--7--4--x--4--7--x--7--9--x--9--|
E|--------------------5--x--5--7--x--7--|


his is merely my interpretation of the song, It may be correct and it maybe incorrect. 
But either way, It sounds good and Is fun to play. Add your own flair too it an make it 
your own...This is merely a guide to the song.

Thanks -Andrew
Tap to rate this tab
 
# A B C D E F G H I J K L M N O P Q R S T U V W X Y Z