Song name
# A B C D E F G H I J K L M N O P Q R S T U V W X Y Z

Less Than Jake - Happy Days tab

Help us improve GuitareTab! Take a short survey!
"Happy Days" - Less Than Jake
	           
(played tuned down 1/2 step but I don't do it that way.  It can be played
this way in normal tuning.)

INTRO:
e|-----------------------------------------------------------------------|
B|-----------------------------------------------------------------------|
G|-------8-------6-------8----------4-/-6----4-/-6------6-----4----------|
D|---4---8---6---6---8---8----------4-/-6----4-/-6------6-----4----------|
A|---4---6---6---4---8---6----------2-/-4----2-/-4------4-----2----------|
E|---2-------4-------6---------------------------------------------------|
     Sunday, Monday happy days ...   Saturday, what a day ...

CHORUS:
e|-----------------------------------------------------------------------|
B|-----------------------------------------------------------------------|
G|-------8---4---6-------------------------------------------------------|
D|---4---8---4---6-------------------------------------------------------|
A|---4---6---2---4-------------------------------------------------------|
E|---2-------------------------------------------------------------------|
     These days are all your's and mine...

VERSE:
e|-----------------------------------------------------------------------|
B|-----------------------------------------------------------------------|
G|---------------------------6----4--------------------------------------|
D|---4---4---4------6---6----6----4--------------------------------------|
A|---4---4---4------6---6----4----2--------------------------------------|
E|---2---2---2------4---4------------------------------------------------|
    Goodbye Grey sky...      Rockin' and Rollin' all week long ... 

OUTRO:
e|----------------------|
B|----------------------|
G|---4---6--------------|
D|---4---6---6---4------|
A|---2---4---6---4------|
E|-----------4---2------|
Related for Happy Days tab