Song name
# A B C D E F G H I J K L M N O P Q R S T U V W X Y Z

Less Than Jake - Jen Doesnt Like Me Anymore chords

Highlighted       Show chord diagrams
LESS THAN JAKE - JEN DOESN'T LIKE ME ANYMORE

G|---------|
D|---------|
A|-6-6-6-6-|
E|---------|

G|-------------------------------------------------------------|
D|---------------------------------------------------8-8-8-8-8-|
A|-----------------6-6-6-6-6-6-6-6-6---------8-8-8-8-----------|
E|-6-6-6-6-6-6-6-6-------------------6-6-6-6-------------------|

G|---------------------------------------|
D|---------------------10---10-10-8-7-10-|
A|-6-6-6-6-6-6-6-6-8-8----8--------------|
E|---------------------------------------|

G|-----------------------------------|
D|-8-8-8-8-6-6-6-6-5-5-5h6p5---------|
A|---------------------------6-6-6-6-|
E|-----------------------------------|

G|-------------------------------------------------------|
D|-------------------------------8-8-8-8-6-6-6-6-5-5-5-5-|
A|-6-6-6-6-6-6-6-6-8-8-8-8-8-8-8-------------------------|
E|-------------------------------------------------------|

G|---------|
D|---------|
A|-6-6-6-5-| x4
E|---------|

G|-----------------|
D|-------------8---|
A|-----------6---6-|
E|-----------------|

G|---------------------------------|
D|---------------------------------|
A|-------------------------6-6-6-6-| 1,3
E|-6-6-6-6-6-6-6-6-4-4-4-4---------|

G|-------------------------------|
D|---------5-----6-6-5-5---------|
A|-----------6-8---------8-8-6-6-| 2,4
E|-6-6-6-6-----------------------|

G|---------|
D|---------|
A|-6-6-6-5-| x3
E|---------|

G|--------------------------------------------|
D|--------------------------------------------|
A|--------6---------------8-8-8-8-6-6-6-6-----|
E|-6--------------6-----------------------/18-|

G|-------------------------------------------------------------|
D|---------------------------------------------------8-8-8-8-8-|
A|-----------------6-6-6-6-6-6-6-6-6---------8-8-8-8-----------|
E|-6-6-6-6-6-6-6-6-------------------6-6-6-6-------------------|

G|---------------------------------------|
D|---------------------10---10-10-8-7-10-|
A|-6-6-6-6-6-6-6-6-8-8----8--------------|
E|---------------------------------------|

G|-------------------------------------|
D|-8-8-8-8-6-6-6-6-5-5-5h6p5-6-6-5-----|
A|---------------------------------6-5-|
E|-------------------------------------|

G|---------------------------------|
D|---------------------------------|
A|-6-6-6-6-6-6-6-6-8-8-8-8-8-8-8-8-|
E|---------------------------------|

G|-------------------------|
D|-8-8-8-8-6-6-6-6-5-5-5-5-|
A|-------------------------|
E|-------------------------|

G|---------|
D|---------|
A|-6-6-6-5-| x4
E|---------|

G|-----------|
D|-----------|
A|-----------|
E|-6---------|

G|-----------------|
D|-------------8---|
A|-----------6---6-|
E|-----------------|

G|---------------------------------|
D|---------------------------------|
A|-------------------------6-6-6-6-| 1,3
E|-6-6-6-6-6-6-6-6-4-4-4-4---------|

G|-------------------------------|
D|---------5-----6-6-5-5---------|
A|-----------6-8---------8-8-6-6-| 2,4
E|-6-6-6-6-----------------------|

G|---------|
D|---------|
A|-6-6-6-5-| x4
E|---------|

G|---|
D|---|
A|---|
E|-6-|

G|-------------------------------------------------------|
D|-----------------------------------------5---6-6-6-5---|
A|-----5-------5-------------3-3-------6-6---6---------6-|
E|-6-6---6-6-6---6-5-3-3-6-3-----6-5-6-------------------|

G|----------------------|
D|-----10---10-10-8-7-8-|
A|-8-8----8-------------|
E|----------------------|

G|-------------------------------------------------------|
D|-----------------------------------------5---6-6-6-5---|
A|-----5-------5-------------3-3-------6-6---6---------6-|
E|-6-6---6-6-6---6-5-3-3-6-3-----6-5-6-------------------|

G|-----------------|
D|-----------------|
A|-8-8-8-8-6-6-6-6-|
E|-----------------|

G|-----------------------------------------------|
D|-----------------------------------------------|
A|-----------------6-6-6-5-6-5-8-8-8-8-6-6-8-6-5-|
E|-6-6-6-6-3-3-3-3-------------------------------|

G|-----------------------------------------------------------|
D|-----------5-----5-8-7-8-7---------8-7-8---7-8-10----5-6-8-|
A|---------------------------6-6-6-6-------8--------6--------|
E|-6-6-6-6-3---3-3-------------------------------------------|

G|---------------------------------|
D|---------5-----------------------|
A|-----------6-8-----8-8-6-6-5-6-5-|
E|-6-6-6-6-------4-4---------------|

G|-------------------------------|
D|---------5-----6-6-5-5---------|
A|-----------6-8---------8-8-6-6-|
E|-6-6-6-6-----------------------|

G|---------------------------------|
D|---------5-----------------------|
A|-----------6-8-----8-8-6-6-5-6-5-|
E|-6-6-6-6-------4-4---------------|

G|-------------------------------------------------------------|
D|---------5-----6-6-5-5-3-3-----------------------------------|
A|-----------6-8-------------6-6-8-8-8-6-6-5-5-----------------|
E|-6-6-6-6-------------------------------------8-8-6-6-5-5-6-6-|
Tap to rate this tab
 
# A B C D E F G H I J K L M N O P Q R S T U V W X Y Z